Oops, an error
Loading. Please wait.
We have an official Try Honesty tab made by UG professional guitarists. Check out the tab »
×

Try Honesty tab

version 2
version 2

Whole song

Interactive

34,712 views 3 this week
7 commentsread comments
1 2 3 4 5
x 12
add to favorites
×
Save as Personal and add changes to this tab that will be seen only by you. Learn more ›
×
You can save this tab as Personal to edit and correct it or add notes. All changes will be seen only by you. Learn more »
launch autoscroll
font size
0
reset
how to read this tab
guitar tuner
backing track
0:00
0:00
edit
Autoscroll
slow
fast
+/-
esc
set tempo
stop
Author
-------------------------------------------------------------------------------
                             Try Honesty - Billy Talent
-------------------------------------------------------------------------------

Tabbed by: Mark Stoute
Email: Lecanucker@hotmail.com

Tuning: Dropped D (DADGBE)


riff plays on and off during verses
e|-----------------7------------|
B|-----------------7------------|
G|---9p7------------------------|
D|--------7-6-7\4---------------|
A|------------------------------|
D|------------------------------|


Intro
it might be easier to play the open e string instead of 5 on b or vice versa
e|--------------------------------------------0---------0----------0-------0---|
B|----------5--------5--------5-------5----------------------------------------|
G|--------2---2----2---2----2---2---2---2---1---1----1----1----1-2-----2-4-----|
D|------4--------4--------2-------2-------2--------2---------2-------2--------2|
A|-----------------------------------------------------------------------------|
D|-----------------------------------------------------------------------------|


e|---------------------------------------------0-----0----00|
B|----------5--------5--------5-------5--------0-----0----33|
G|--------2---2----2---2----2---2---2---2------1-----2----22|
D|------4--------4--------2-------2-------2----2-----2----44|
A|----------------------------------------------------------|
D|----------------------------------------------------------|

Chorus
e|-----0------------------0----------------------------------------------------|
B|-----5------------------5----------------------------------------------------|
G|-----2------------------2----------------------------------------------------|
D|-----4------------------2-----------------------------4-------------2--------|
A|------------------------------------------------------4-------------2--------|
D|------------------------------------------------------4-------------2--------|
        Forgive me father  Why should you bother        Try honesty    Try honesty

bending part... after the chorus
e|-------------5b-----------------7b----------|
B|-------------5b-----------------7b----------|
G|-------------5b-----------------7b----------|
D|--------------------------------------------|
A|--------------------------------------------|
D|--------------------------------------------|

Ending.. listen carefully and youll hear it 
e|--------------------------------------------|
B|--------------------------------------------|
G|--------------------------------------------|
D|-------5~ repeated--------------------------|
A|--------------------------------------------|
D|--------------------------------------------|


| /  slide up
| \  slide down
| h  hammer-on
| p  pull-off
| ~  vibrato
| +  harmonic
| x  Mute note


The bass part of this song sounds alot like
D  4    0
A  4    0
D  4    0
some people had this confused for the guitar part... if you listen carefully
there are definatly some bass riffs later on that start with those sounds.
Also, just watch the music video. i duno what you think but this is a solid
band. creative and original. goodstuff. Have fun.

This is a work in progress... i think the 'try honesty' part might have the
guitar playing notes( 7 6 4 6 4 2 on the middle d string) instead of chords with
the bass. and im not fully sure about the end of the intro.
email me if you make any changes. Lecanucker@hotmail.com

===============================================================================

            
            
Suggest correction
Creating personal tab
Creating personal tab
You can edit any tab online and save it as your Personal.

You can edit, replace or remove any tab part or add personal notes – all changes will be seen only by you.

Personal tabs can be accessed anytime from any device, even offline.
Learn more »
comments
print report bad tab
7 comments total. Showing first comments.
0 reply
guywithguitar 667 Aug 19, 2003 08:00 PM

theres a couple places where the 5 on
the B string and the 4 on the D string
could be played with an open e or an
open B. it sounds good, but this should
make it easier to play

0 reply
Munkey666 250 Aug 07, 2004 08:00 PM

You have missed summink in the chorus.....

in the background when he goes "try honesty, try honesty"
play

|------------------------------
|------------------------------
|------------------------------
|7-7-6-6-4----6-6-4-4-2--------
|4-4-4-4-4----2-2-2-2-2--------
|4-4-4-4-4----2-2-2-2-2--------

0 reply
guitarreader 10 Jul 11, 2006 12:09 PM

sorry dude didn't ;ike it goo d try though\

guest
You may want to rate the tab now too:
select rating
Wanna post a correction for this tab? Suggest correction