Oops, an error
Loading. Please wait.
We have an official White Sparrows tab made by UG professional guitarists. Check out the tab »
×
10,648 views 1 this week
2 commentsread comments
1 2 3 4 5
x 5
add to favorites
×
Save as Personal and add changes to this tab that will be seen only by you. Learn more ›
×
You can save this tab as Personal to edit and correct it or add notes. All changes will be seen only by you. Learn more »
launch autoscroll
font size
0
reset
guitar tuner
backing track
0:00
0:00
edit
Autoscroll
slow
fast
+/-
esc
set tempo
stop
Author
tabbed by tony.d

Intro:1x
G------------------------|
D------------------------|
A-2--6--4--------------4-|
D----------7---1--1-1-1--|

Verse:1x
G------------------------------------------------------------|
D------------------------------------------------------------|
A-7(ring)-44--1-4--7(ring)-44--1-4-2(ring)-----------------4-|
D-----------------------------------------7(ring)--1--1-1-1--|

G---------------------------------------------------------------|
D---------------------------------------------------------------|
A-77(ring)-44--1-4--77(ring)-44--1-4-22(ring)----------------44-|
D--------------------------------------------77(ring)-1--1-1-1--|

Pre-Chorus:2x
G-----------------|
D-----------------|
A-2---22---6---66-|
D-----------------|

Chorus:2x
G------------------------------------|
D------------------------------------|
A-22222222-----------------444444444-|
D---------66666666-11111111----------|


Post Chorus: Play Intro 1x
Verse: 2x
Pre-Chorus:2x

2nd Chorus:1x
G------------------------------------|
D------------------------------------| Play 2x
A-22222222-----------------444444444-|
D---------66666666-11111111----------|

G------------------------------------------------------------------|
D--------------------------44444444----------------666666666666666-| Play 1x
A-22222222---------66666666--------7777777777777777----------------|
D---------66666666-------------------------------------------------|

Bridge:1x
G--------------------------------------------------|
D--------------------------------------------------|
A--------4-4-4-4--------4-4-4-4--22222222----------|
D-1-1-111--------1-1-111------------------66666666-|

G----------------------------------------------------------------------------|
D----------------------------------------------------------------------------|
A--------4-4-4-4--------4-4-4-4--------4-4-4-4---22222222--------------------|
D-1-1-111--------1-1-111--------1-1-111-------------------66666666-111111111-|

2nd Chorus:1x

Outro:1x
G-------------------------------------------------------------------------|
D------------------666666666666666----------------666666666666666---------|
A-7777777777777777----------------7777777777777777----------------6(ring)-|
D-------------------------------------------------------------------------|

            
            
Suggest correction
Creating personal tab
Creating personal tab
You can edit any tab online and save it as your Personal.

You can edit, replace or remove any tab part or add personal notes – all changes will be seen only by you.

Personal tabs can be accessed anytime from any device, even offline.
Learn more »
comments
print report bad tab
2 comments total.
0 reply
Signar 10 Jul 26, 2009 05:45 AM

Great Tab. Only some of the 7 on the low D string, should be 6.

There is one in the intro and one in the verse.

But thanks for the tab :)

0 reply
vnwicked04 10 Jul 31, 2011 11:53 PM

Chorus is

G----------------------------------------|
D----------------------------------------|
A-22222222-------------------------------|
D----------66666666-11111111-00000000----|

and, yes all the 7's are actually 6's (the ones played on the A and D string)

also the outro is wrong

guest
You may want to rate the tab now too:
select rating
Wanna post a correction for this tab? Suggest correction