Oops, an error
Loading. Please wait.
We have an official Worker Bees tab made by UG professional guitarists. Check out the tab »
×
2,680 views 1 this week
no commentswrite comment
1 2 3 4 5
x 3
add to favorites
×
Save as Personal and add changes to this tab that will be seen only by you. Learn more ›
×
You can save this tab as Personal to edit and correct it or add notes. All changes will be seen only by you. Learn more »
launch autoscroll
font size
0
reset
guitar tuner
backing track
0:00
0:00
edit
Autoscroll
slow
fast
+/-
esc
set tempo
stop
Author
Song: Worker Bees
Artist: Billy Talent
Album: Billy Talent II

This is an amazing song and very fun to play. It is straightforward and the notes are
according to the timing of the song so you shouldn’t have any trouble following along, but
you do, post a comment and I will help you out. Also, if you want to print this tab, 
use the font Courier New, size 9, and every line of tab will be completely on one
Enjoy!

INTRO   (0:00)

G|----------------|
D|----------------|
A|3-------3-------|
D|----5-5-----5---|   x24


VERSE 1   ( :  )

G|----------------|----------------|----------------|----------------|
D|----------------|----------------|----------------|3-3-3-3-3-3-3-3-|
A|6-6-6-6-6-6-6-6-|3-3-3-3-3-3-3-3-|5-5-5-5-6-6-6-6-|----------------|
D|----------------|----------------|----------------|----------------|

G|----------------|----------------|----------------|----------------|
D|----------------|----------------|----------------|----------------|
A|----------------|----------------|3-3-3-3-6-6-6-6-|5-5-5-5-5-5-5-5-|
D|6-6-6-6-6-6-6-6-|5-5-5-5-5-5-5-5-|----------------|----------------|


G|----------------|----------------|----------------|----------------|
D|----------------|----------------|----------------|3-3-3-3-3-3-3-3-|
A|6-6-6-6-6-6-6-6-|3-3-3-3-3-3-3-3-|5-5-5-5-6-6-6-6-|----------------|
D|----------------|----------------|----------------|----------------|

G|----------------|----------------|----------------|----------------|
D|----------------|----------------|----------------|----------------|
A|----------------|----------------|3-3-3-3-5-5-5-5-|6-6-6-6-6-6-6-6-|
D|6-6-6-6-6-6-6-6-|5-5-5-5-5-5-5-5-|----------------|----------------|


CHORUS 1   ( :  )

G|----------------|----------------|----------------|----------------|
D|3-3-3-----------|----------------|----------------|--------5-5-5-5-|
A|---------6-6-6--|5-5-5-----------|----------------|----------------|
D|----------------|--------6-6-6---|5-5-5-5---5-5-5-|--5-5-5---------|   x2


G|----------------|----------------|----------------|----------------|
D|3-3-3-----------|----------------|----------------|--------5-5-5-5-|
A|---------6-6-6--|5-5-5-----------|----------------|----------------|
D|----------------|--------6-6-6---|5-5-5-5-5-5-5-5-|--5-5-5---------|

G|----------------|----------------|----------------|----------------|
D|----------------|----------------|----------------|----------------|
A|3---3-------3---|1---1-------1---|----------------|----------------|
D|--------5-------|--------3-------|6---6---6---6---|6---6-6-6-6-6-6-|


PRE-VERSE   ( :  )

G|----------------|
D|----------------|
A|3-------3-------|
D|----5-5-----5---|   x16


VERSE 2   ( :  )  -> Play verse 1

CHORUS 2   ( :  )  -> Play chorus 1 BUT replace last bar with:

G|----------------|
D|----------------|
A|----------------|
D|6---6---6---0---|


BRIDGE 1   ( :  )

G|----------------|----------------|----------------|----------------|
D|----------------|----------------|----------------|----------------|
A|----------------|----------------|--------1---3---|3---1-----------|
D|1---1-1-1---0---|1---1---1---0---|6---6-----------|--------6---5---|  \
                                                                        |
G|----------------|----------------|----------------|----------------|  |
D|----------------|----------------|----------------|----------------|  |
A|----------------|----------------|3---3---5---6---|3---3---5---6---|  |
D|1---1-1-1---0---|1---1---1---0---|----------------|----------------|  |
                                                                        |  x2
G|----------------|----------------|----------------|----------------|  |
D|----------------|----------------|----------------|----------------|  |
A|----------------|----------------|--------1---3---|3---1-----------|  |
D|5---5-5-5---3---|5---5---5---0---|6---6-----------|--------6---5---|  |
                                                                        |
G|----------------|----------------|----------------|----------------|  /
D|----------------|----------------|----------------|----------------|
A|3---3-------3---|1---1-------1---|----------------|----------------|
D|--------5-------|--------3-------|6---6---6---6---|6---6---6---6---|

G|----------------|----------------|----------------|----------------|
D|----------------|----------------|----------------|----------------|
A|3---3-------3---|1---1-------1---|----------------|----------------|
D|--------5-------|--------3-------|6---6---6---6---|6---6---6---6---|


GUITAR SOLO   ( :  )

G|----------------|----------------|----------------|----------------|
D|----------------|----------------|----------------|----------------|
A|3-------3-------|3-------3-------|5-------5-------|5-------5-------|
D|----5-5-----5---|----5-5-----5---|----8-8-----8---|----8-8-----8---|

G|----------------|----------------|----------------|----------------|
D|----------------|----------------|5-------5-------|5-------5-------|
A|6-------6-------|6-------6-------|----------------|----------------|
D|----6-6-----6---|----6-6-----6---|----5-5-----5---|----5-5-----5---|


G|----------------|----------------|----------------|----------------|
D|----------------|----------------|----------------|----------------|
A|3-------3-------|3-------3-------|5-------5-------|5-------5-------|
D|----5-5-----5---|----5-5-----5---|----8-8-----8---|----8-8-----8---|

G|----------------|----------------|----------------|----------------|
D|----------------|----------------|5---------------|----------------|
A|6-------6-------|6-------6-------|----------------|----------------|
D|----6-6-----6---|----6-6-----6---|----5---5---5---|5---5---5---5---|


BRIDGE 2   ( :  )

First play Bridge 1 in full, then:

G|----------------|----------------|----------------|----------------|
D|----------------|----------------|----------------|----------------|
A|3---3-------3---|1---1-------1---|----------------|----------------|
D|--------5-------|--------3-------|6---6---6---6---|6---6---6---6---|

G|----------------|
D|----------------|
A|3---------------|
D|----------------|    - :


Symbol Legend:

x24  = Play this section twenty-four times

That’s it. Any comments, questions, suggestions or corrections would be appreciated.

            
            
Suggest correction
Creating personal tab
Creating personal tab
You can edit any tab online and save it as your Personal.

You can edit, replace or remove any tab part or add personal notes – all changes will be seen only by you.

Personal tabs can be accessed anytime from any device, even offline.
Learn more »
Give kudos to tab author, rate the tab!
1 2 3 4 5
comments
print report bad tab
guest
You may want to rate the tab now too:
select rating
Wanna post a correction for this tab? Suggest correction