Oops, an error
Loading. Please wait.
We have an official Worker Bees tab made by UG professional guitarists. Check out the tab »
×
3,950 views 1 this week
3 commentsread comments
1 2 3 4 5
x 3
add to favorites
×
Save as Personal and add changes to this tab that will be seen only by you. Learn more ›
×
You can save this tab as Personal to edit and correct it or add notes. All changes will be seen only by you. Learn more »
launch autoscroll
font size
0
reset
how to read this tab
guitar tuner
backing track
0:00
0:00
edit
Autoscroll
slow
fast
+/-
esc
set tempo
stop
-------------------------------------------------------------------------------
                           WORKER BEES - Billy Talent
-------------------------------------------------------------------------------
Tabbed by: Barry Miles
Email: shoebox_of_lies@hotmail.com 

Tuning: Drop D (DADGBe)

PreVerse:
e|-3---------------|-------------------|-----------------|-------------------|
B|-4-------4-------|-------------------|-----------------|-------------------|
G|-5-------5-------|-10---12---13------|-8-------7-------|-8---12---10-------|
D|-5-------5-------|-10---13---13------|-6-------5-------|-8---13---10-------|
A|---------6-------|-8----10---11------|-6-------5-------|-6---10---8--------|
D|-----------------|-------------------|-6-------9-------|-------------------|
 "March    On       Wor - ker  Bees     Know    Your       En - e - my"

Verse:
e|---------------------------------|-----------------------------------------|
B|-8-8-8-8-8-8-8-8-4-4-4-4-4-4-4-4-|-6-6-6-6-8-8-8-8-9--9--9--9--9--9--9--9--|
G|-8-8-8-8-8-8-8-8-5-5-5-5-5-5-5-5-|-7-7-7-7-8-8-8-8-10-10-10-10-10-10-10-10-|
D|---------------------------------|-----------------------------------------|
A|---------------------------------|-----------------------------------------|
D|---------------------------------|-----------------------------------------|
 "We take our orders given by the queen..."

e|---------------------------------|---------------------------------|
B|---------------------------------|-4-4-4-4-8-8-8-8-6-6-6-6-6-6-6-6-|
G|-8-8-8-8-8-8-8-8-7-7-7-7-7-7-7-7-|-5-5-5-5-8-8-8-8-7-7-7-7-7-7-7-7-|
D|-6-6-6-6-6-6-6-6-5-5-5-5-5-5-5-5-|---------------------------------|
A|---------------------------------|---------------------------------|
D|---------------------------------|---------------------------------|

e|---------------------------------|-----------------------------------------|
B|-8-8-8-8-8-8-8-8-4-4-4-4-4-4-4-4-|-6-6-6-6-8-8-8-8-9--9--9--9--9--9--9--9--|
G|-8-8-8-8-8-8-8-8-5-5-5-5-5-5-5-5-|-7-7-7-7-8-8-8-8-10-10-10-10-10-10-10-10-|
D|---------------------------------|-----------------------------------------|
A|---------------------------------|-----------------------------------------|
D|---------------------------------|-----------------------------------------|

e|---------------------------------|---------------------------------|
B|-----------------3-3-3-3-3-3-3-3-|-4-4-4-4-6-6-6-6-8-8-8-8-8-8-8-8-|
G|-8-8-8-8-8-8-8-8-4-4-4-4-4-4-4-4-|-5-5-5-5-7-7-7-7-8-8-8-8-8-8-8-8-|
D|-6-6-6-6-6-6-6-6-----------------|---------------------------------|
A|---------------------------------|---------------------------------|
D|---------------------------------|---------------------------------|

Chorus:
e|------------------------------------|---------------------------------|
B|-9--9--9----8-8-8---6-6-6-----------|-------------------------8-8-8-8-|
G|-10-10-10---8-8-8---7-7-7---8-8-8---|---------8-------7-------7-7-7-7-| x3
D|-10-10-10---8-8-8---7-7-7---6-6-6---|-5-5-5-5---5-5-5---5-5-5-5-5-5-5-|
A|-8--8--8----6-6-6---5-5-5---6-6-6---|-5-5-5-5---5-5-5---5-5-5-5-5-5-5-|
D|----------------------------6-6-6---|-5-5-5-5---5-5-5---5-5-5---------|
                                       "Protect the hive from enemies!"

e|-------------------------|-------------------------|
B|-4--4--4--4--3--3--3--3--|-------------------------|
G|-5--5--5--5--3--3--3--3--|-8--8--8--8--8--8--8--8--|
D|-5--5--5--5--3--3--3--3--|-6--6--6--6--6--6--6--6--|
A|-3--3--3--3--1--1--1--1--|-6--6--6--6--6--6--6--6--|
D|-------------------------|-6--6--6--6--6--6--6--6--|

Bridge:
e|-------------------------|-------------------------|
B|-------------------------|-------------------------|
G|-3--3--3-----3--3--3-----|-8--8--8--8--8--8--8-----|
D|-1--1--1-----1--1--1-----|-6--6--6--6--6--6--6-----|
A|-1--1--1-----1--1--1-----|-6--6--6--6--6--6--6-----|
D|-1--1--1--0--1--1--1--0--|-6--6--6--6--6--6--6--0--|
 "And we'll march along..."

e|-------------------------|-------------------------|
B|-------------------------|-4--4--4--4--4--4--4--4--|
G|-3--3--3-----3--3--3-----|-5--5--5--5--5--5--5--5--|
D|-1--1--1-----1--1--1-----|-5--5--5--5--5--5--5--5--|
A|-1--1--1-----1--1--1-----|-3--3--3--3--3--3--3--3--|
D|-1--1--1--0--1--1--1--0--|-------------------------|

e|-------------------------|-------------------------|
B|-------------------------|-------------------------|
G|-7--7--7--7--7--7--7--7--|-8--8--8--8--8--8--8--8--|
D|-5--5--5--5--5--5--5--5--|-6--6--6--6--6--6--6--6--|
A|-5--5--5--5--5--5--5--5--|-6--6--6--6--6--6--6--6--|
D|-5--5--5--5--5--5--5--5--|-6--6--6--6--6--6--6--6--|

e|-------------------------|-------------------------|
B|-4--4--4--4--3--3--3--3--|-------------------------|
G|-5--5--5--5--3--3--3--3--|-8--8--8--8--8--8--8--8--|
D|-5--5--5--5--3--3--3--3--|-6--6--6--6--6--6--6--6--|
A|-3--3--3--3--1--1--1--1--|-6--6--6--6--6--6--6--6--|
D|-------------------------|-6--6--6--6--6--6--6--6--|

Guitar Solo:
e|-------------------------------------------------------------------------|
B|-8-8-8-8-8-8-8-8-4-4-4-4-4-4-4-4-6-6-6-6-8-8-8-8-9--9--9--9--9--9--9--9--|
G|-8-8-8-8-8-8-8-8-5-5-5-5-5-5-5-5-7-7-7-7-8-8-8-8-10-10-10-10-10-10-10-10-|
D|-------------------------------------------------------------------------|
A|-------------------------------------------------------------------------|
D|-------------------------------------------------------------------------|

e|-----------------------------------------------------------------------------------------|
B|-9-9-9-9-9-9-9-9-13-13-13-13-13-13-13-13-12-12-12-12-12-12-12-12-13-13-13-13-15-15-15-15-|
G|-8-8-8-8-8-8-8-8-13-13-13-13-13-13-13-13-10-10-10-10-10-10-10-10-13-13-13-13-15-15-15-15-|
D|-----------------------------------------------------------------------------------------|
A|-----------------------------------------------------------------------------------------|
D|-----------------------------------------------------------------------------------------|

e|-------------------------------------------------|
B|-16-16-16-16-16-16-16-16-13-13-13-13-13-13-13-13-|
G|-17-17-17-17-17-17-17-17-12-12-12-12-12-12-12-12-|
D|-------------------------------------------------|
A|-------------------------------------------------|
D|-------------------------------------------------|

e|-------------------------------------------------|
B|-15-15-15-15-16-16-16-16-18-18-18-18-18-18-18-18-|
G|-16-16-16-16-17-17-17-17-19-19-19-19-19-19-19-19-|
D|-------------------------------------------------|
A|-------------------------------------------------|
D|-------------------------------------------------|

e|-------------------------------------------------|
B|-16-16-16-16-18-18-18-18-20-20-20-20-20-20-20-20-|
G|-17-17-17-17-19-19-19-19-20-20-20-20-20-20-20-20-|
D|-------------------------------------------------|
A|-------------------------------------------------|
D|-------------------------------------------------|

   (start bending)
e|-------------------------------------------------|
B|-20-20-20-20-20-20-20-20-20-20-20-20-20-20-------|
G|-20-20-20-20-20-20-20-20-20-20-20-20-20-20-------|
D|-------------------------------------------------|
A|-------------------------------------------------|
D|---------------------------------------------\0--|

Order:
Preverse x2
Verse    x1
Chorus   x1
Preverse x2
Verse    x1
Chorus   x1
Bridge   x2
Solo     x1
Bridge   x2

| /  slide up
| \  slide down
| h  hammer-on
| p  pull-off
| ~  vibrato
| +  harmonic
| x  Mute note
===============================================================================

            
            
Suggest correction
Creating personal tab
Creating personal tab
You can edit any tab online and save it as your Personal.

You can edit, replace or remove any tab part or add personal notes – all changes will be seen only by you.

Personal tabs can be accessed anytime from any device, even offline.
Learn more »
Give kudos to tab author, rate the tab!
1 2 3 4 5
comments
print report bad tab
3 comments total.
0 reply
marcmcn 41 Mar 02, 2007 08:12 PM

Every chord in the intro in wrong and so is the solo.
I'll post the proper tab with power tab soon...

0 reply
shoebox_of_lies 2,843 Mar 03, 2007 05:36 AM

you're a douche, fix you're ears.

0 reply
shoebox_of_lies 2,843 Mar 03, 2007 05:37 AM

talking to the guy above me ^^

guest
You may want to rate the tab now too:
select rating
Wanna post a correction for this tab? Suggest correction