Oops, an error
Loading. Please wait.

Ode To Death tab

2,087 views 1 this week
2 commentsread comments
1 2 3 4 5
2 more votes to show rating
add to favorites
×
Save as Personal and add changes to this tab that will be seen only by you. Learn more ›
×
You can save this tab as Personal to edit and correct it or add notes. All changes will be seen only by you. Learn more »
launch autoscroll
font size
0
reset
how to read this tab
guitar tuner
edit
Autoscroll
slow
fast
+/-
esc
set tempo
stop
-----------------------------------------------------------------------------
                             ODE TO DEATH - Birds Of Tokyo
-----------------------------------------------------------------------------
Tabbed by: Refugeesus
Email: bxy959@hotmail.com or www.myspace.com/sinistertones

Tuning: Drop D

As with most of my tabs, there is room for improvement, for example; 
i'm not convinced about the last 2 chords in riff 3, 
but enjoy what's here :)

Intro
e|------------------------------------------------------------|
B|------------------------------------------------------------|
G|------------------------------------------------------------|
D|-7--7-7--7--7-7--7--7-7--8-8--7--7-7--7--7-7--7--7-7--10-10-|   x2
A|-7--7-7--7--7-7--7--7-7--8-8--7--7-7--7--7-7--7--7-7--10-10-|
D|-7--7-7--7--7-7--7--7-7--8-8--7--7-7--7--7-7--7--7-7--10-10-|

RIFF 1
e|-----------------------------|
B|-----------------------------|
G|-----------------------------|
D|-7--7-7--7--7-7--7--7-7--8-8-|
A|-7--7-7--7--7-7--7--7-7--8-8-|
D|-7--7-7--7--7-7--7--7-7--8-8-|

RIFF 2
e|----------------------------------------------------|
B|----------------------------------------------------|
G|----------------------------------------------------|
D|-0--0-0--0--0-0--0--0-0--7--7-7--7--7-7--7--7-7-8-8-|
A|-0--0-0--0--0-0--0--0-0--7--7-7--7--7-7--7--7-7-8-8-|
D|-0--0-0--0--0-0--0--0-0--7--7-7--7--7-7--7--7-7-8-8-|

RIFF 3
e|-------------------------------------------------|
B|-------------------------------------------------|
G|-------------------------------------------------|
D|-3-3-3-3-7-7-7-7-3-3-3-3-7-7-9-9-3-3-3-3-2-2-5-5-|
A|-3-3-3-3-7-7-7-7-3-3-3-3-7-7-9-9-3-3-3-3-2-2-5-5-|
D|-3-3-3-3-7-7-7-7-3-3-3-3-7-7-9-9-3-3-3-3-2-2-5-5-|

 |Tell me, how far would you go?               |
 |Would you you take the life of another?      | Play with Riff 1
 |Will you be the one to say no?               |
 |Forgive and forget when you die my love      |

 |Never will i see the sun again               | Play with Riff 2

 |Leave it, just leave it alone                |
 |You're picking the scab off another          | Play with Riff 1
 |We dig in the dirt to expose                 |
 |The answers to all that we do not know       |


 |Never will i see the sun again               | Play with Riff 2
 |Never will i see the sun again               |

 |Where were you monday?                       | Play with Riff 3
 |I was not missing i was dead                 |

 |It's simple, believe it or not               |
 |It's easy to play out the ignorant           |
 |The fever that burns in us all               | Play with Riff 1
 |The price that you pay when you die my love  |

 |Never will i see the sun again               | Play with Riff 2
 |Never will i see the sun again               |

 |Where were you Monday?                       | Play with Riff 3
 |I was not missing i was dead                 |

 |Never will i see the sun again               | Play with Riff 2
 |Never will i see the sun again               |

 |Where were you Monday?                       | Play with Riff 3
 |I was not missing i was dead                 |

 |You know i killed them all                   | Play with Riff 1

=============================================================================

            
            
Suggest correction
Creating personal tab
Creating personal tab
You can edit any tab online and save it as your Personal.

You can edit, replace or remove any tab part or add personal notes – all changes will be seen only by you.

Personal tabs can be accessed anytime from any device, even offline.
Learn more »
Give kudos to tab author, rate the tab!
1 2 3 4 5
comments
print report bad tab
2 comments total.
+1 reply
liam_barker_12 10 Apr 03, 2009 07:03 PM

try this, this is the real way to play the intro trust me. this is in STANDARD TUNING
e|----------------------------------------------------------|
B|----------------------------------------------------------|
G|----------------------------------------------------------|
D|-7--7-7--7--7-7--7--7-7--7-7--7--7-7--7--7-7--7--7-7--7--7| x2
A|-7--7-7--7--7-7--7--7-7--7-7--7--7-7--7--7-7--7--7-7--7--7|
e|-5--5-5--5--5-5--5--5-5--6-6--5--5-5--5--5-5--5--5-5--6--6|

0 reply
stefanomassimo 305 Apr 09, 2009 09:10 PM

Yeah, i noticed when i saw them live that they were playing it in standard tuning, i just haven't gone back to fix it. Thanks for the update!

Keep 'em coming!

Ref G

guest
You may want to rate the tab now too:
select rating
Wanna post a correction for this tab? Suggest correction