Oops, an error
Loading. Please wait.

Jealous Again bass

version 2
version 2

Whole song

Interactive

175 views 3 this week
no commentswrite comment
1 2 3 4 5
1 last vote to show rating
add to favorites
×
Save as Personal and add changes to this tab that will be seen only by you. Learn more ›
×
You can save this tab as Personal to edit and correct it or add notes. All changes will be seen only by you. Learn more »
launch autoscroll
font size
0
reset
guitar tuner
edit
Autoscroll
slow
fast
+/-
esc
set tempo
stop
Author
Difficulty
Song: Jealous Again 
Artist: Black Flag 
Album: Jealous Again (this tab goes right for all the versions of the song)
Genre: Hardcore Punk
Year: 1980

Hey guys! This is the bass tab of the song. I know there already is a tab of this song, but it's 
incomplete, this not! And I think it's 95 or 100% correct, you can make some corrections with a
comment.
Anyway, enjoy the Black Flag!

Intro (play after the guitar's riffs):

G:---976---------
D:-------976-----
A:-----------9---
E:---------------

Verse:

G|-------------------------   ------------------------------------------
D|-------------------------   ------------------------------------------
A|---77------5-555555555---   ---77-----5-55-----3-777777777-44-55-66---
E|-------7-7---------------x2 ------7-7------555------------------------x1

G|-------------------------   ---------------------------------------
D|-------------------------   ---------------------------------------
A|---77------5-555555555---   ---77-----5-55-----3-777777777777777---
E|-------7-7---------------x2 ------7-7------555---------------------x1

Chorus:

G:-------------------------------------   -----------------------
D:-------------------------------------   ------------5-555555---
A:-------------------9-7-5-7-----------   -----------------------
E:---77777777-777777---------5-5-555---x2 ---3-333333------------x1


Outro: 

G:------------------------   -----------------------------------------
D:------------------------   -----------------------------------------
A:---77-----5-555555555---   ---77-----5-55-----3-33-----2-22---------
E:------7-7---------------x2 ------7-7------5-5------3-3------111-0---x1

The order is:
.Intro x1
.Verse x1
.Chorus x1
.Verse x1
.Chorus x1
.Verse x1
.Chorus x1
.Outro x1




Tab by: mdc_ivan




            
            
Suggest correction
Creating personal tab
Creating personal tab
You can edit any tab online and save it as your Personal.

You can edit, replace or remove any tab part or add personal notes – all changes will be seen only by you.

Personal tabs can be accessed anytime from any device, even offline.
Learn more »
Give kudos to tab author, rate the tab!
1 2 3 4 5
comments
print report bad tab
guest
You may want to rate the tab now too:
select rating
Wanna post a correction for this tab? Suggest correction