Oops, an error
Loading. Please wait.

White Minority tab

version 3
version 3

Whole song

Interactive

400 views 1 this week
14 commentsread comments
1 2 3 4 5
x 3
add to favorites
×
Save as Personal and add changes to this tab that will be seen only by you. Learn more ›
×
You can save this tab as Personal to edit and correct it or add notes. All changes will be seen only by you. Learn more »
launch autoscroll
font size
0
reset
how to read this tab
guitar tuner
edit
Autoscroll
slow
fast
+/-
esc
set tempo
stop
-------------------------------------------------------------------------------
                            WHITE MINORITY - Black Flag
-------------------------------------------------------------------------------
Tabbed by: MattTheArsonist
Email: mattsaari@live.com

Tuning: EADBGe

Intro
e|---------------------------|
B|---------------------------|
G|---------------------------|
D|-4--4-4-4-4---9-9-9--7--9--|
A|-4--4-4-4-4---9-9-9--7--9--|
E|-2--2-2-2-2---7-7-7--5--7--|x4

e|--------------------------------|
B|--------------------------------|
G|--------------------------------|
D|--9-9-9-9-9-9-9-9-9-9-9-9--7-8--|
A|--9-9-9-9-9-9-9-9-9-9-9-9--7-8--|
E|--7-7-7-7-7-7-7-7-7-7-7-7--5-6--|x2

Verse
e|------------------------------|
B|------------------------------|
G|-------------------9---9---9--|
D|--9-9-9-9-9-9-9-9--9-9-9-9-9--|
A|--9-9-9-9-9-9-9-9--7-9-7-9-7--|
E|--7-7-7-7-7-7-7-7----7---7----|x4

Chorus

e|---------------------------------------------------------------|
B|---------------------------------------------------------------|
G|-11-11-11-11--11-11---9-9-9-9--9-9-----------------------------|
D|-11-11-11-11--11-11---9-9-9-9--9-9---7-7-7-7-7-7--9-9-9-9-9-9--|
A|--9--9--9--9---9--9---7-7-7-7--7-7---7-7-7-7-7-7--9-9-9-9-9-9--|
E|-------------------------------------5-5-5-5-5-5--7-7-7-7-7-7--|x2


Verse 4x
Chorus 2x
Verse 3x

Outro
e|--------------------------|
B|--------------------------|
G|-------------------9-x-9--|
D|--9-9-9-9-9-9-9-9--9-x-9--|
A|--9-9-9-9-9-9-9-9--7-x-7--|
E|--7-7-7-7-7-7-7-7---------|


That's about it. Pretty easy, I don't know how the other guys tabbing got it wrong.

            
            
Suggest correction
Creating personal tab
Creating personal tab
You can edit any tab online and save it as your Personal.

You can edit, replace or remove any tab part or add personal notes – all changes will be seen only by you.

Personal tabs can be accessed anytime from any device, even offline.
Learn more »
Give kudos to tab author, rate the tab!
1 2 3 4 5
comments
print report bad tab
14 comments total. Showing first comments.
0 reply
RockinTheIbanez 478 Nov 13, 2006 04:45 AM

You got the verse wrong.

0 reply
MattTheArsonist 557 Nov 14, 2006 02:53 PM

Well your Misfits tabs suck. =P

As far as I can tell, I've gone over the song a couple times, there's nothing wrong with the way I wrote the verse.

0 reply
RockinTheIbanez 478 Dec 28, 2006 07:10 AM

Alright buddy the verse is played like this


E----------|-----------|
B----------|-----------|
G----------|-9---9---9-|
D-99999999-|-9-9-9-9-9-|
A-99999999-|-7-9-7-9-7-|
E-77777777-|---7---7---|


Try playing it like that, I guarantee you it will sound a lot better


oh yeah and my Misfits tabs are perfect.

guest
You may want to rate the tab now too:
select rating
Wanna post a correction for this tab? Suggest correction