Oops, an error
Loading. Please wait.

The Secret bass

349 views 1 this week
1 commentread comment
1 2 3 4 5
2 more votes to show rating
add to favorites
×
Save as Personal and add changes to this tab that will be seen only by you. Learn more ›
×
You can save this tab as Personal to edit and correct it or add notes. All changes will be seen only by you. Learn more »
launch autoscroll
font size
0
reset
guitar tuner
edit
Autoscroll
slow
fast
+/-
esc
set tempo
stop
Bass Tab

Tabber: Cosmo
Band: Black Infinity
Song: The Secret
Tuning: Drop D
Bassist: Tiger Vu
An amazing song, with amazing keyboard/string riffs. This is the bass tab,
I might be able to tab the keyboard parts too, later. Its a really simple song.
Black Infinity are possibly the best Vietnamese metal band.
          \m/ *..* \m/ from Australia.

Amazing Intro from start to 45 sec.

                        First Riff at 45 sec.
G:----------------------------------------------------------------------------|
D:----------------------------------------------------------------------------|
A:----------------------------------------------------------------------------| X4
D:0--0-0-0--0-0-0--0-0-3--3-3-3--3-3-3--3-3-5--5-5-5--5-5-5--5-5-5--5-5-5--55-|

              Second Riff
G:------------------------------------|
D:------------------------------------|
A:------------------------------------|  X2
D:0--------0--------0--------0--------|

             Third Riff
G:--------------------------------|
D:--------------------------------|
A:------------------5-------------|  X8
D:0-7\6-0-2/3-5-6-7---7-6-5h3-5h3-|

              Fourth Riff
G:-----------------------------------|
D:-----------------------------------|
A:-----------------------------------| X3
D:0----6-5-----3-5-6-7--0----6-5-----|

              Fill
G:-----------------------------------|
D:-----------------------------------|
A:-----------------------------------|
D:3-5-6-7--0-0--0-0--0-0---------7\0-|

                  Main Riff
G:---------------------------------------------------|
D:---------------------------------------------------|
A:---------------------------------------------------|
D:0--0-0-0--0-0-0--0-0-3--3-3-3--3-3-3--3-3-5-- ==---|
  ============================================== X8
G:--------------------------------------------- ==---|
D:---------------------------------------------------|
A:---------------------------------------------------|
D:5-5-5--5-5-5--5-5-8--8-8-8-8-8-10--10-10-10--10-10-|

              Second Riff
G:------------------------------------|
D:------------------------------------|
A:------------------------------------|  X2
D:0--------0--------0--------0--------|

             Third Riff
G:--------------------------------|
D:--------------------------------|
A:------------------5-------------|  X8
D:0-7\6-0-2/3-5-6-7---7-6-5h3-5h3-|


              Slow Version of Main Riff
G:---------------------------------------------------|
D:---------------------------------------------------|
A:---------------------------------------------------|
D:0----------------------3----------------------==---|
  ============================================== X2
G:--------------------------------------------- ==---|
D:---------------------------------------------------|
A:---------------------------------------------------|
D:5----------------------8--------------10-----------|


                    Faster Version of Main Riff
G:------------------------------------------------------------------------|
D:------------------------------------------------------------------------|
A:------------------------------------------------------------------------|
D:0-0-0-0-0-0-0-0-0-0-0-0-0-0-0-0-3-3-3-3-3-3-3-3-3-3-3-3-3-3-3-3----==---|
  =================================================================== X10
G:-------------------------------------------------------------------==---|
D:------------------------------------------------------------------------|
A:------------------------------------------------------------------------|
D:5-5-5-5-5-5-5-5-5-5-5-5-5-5-5-5-8-8-8-8-8-8-8-8-10-10-10-10-10-10-10-10-|


                    Finishing Riff
G:--------------------------------------------------------------|
D:--------------------------------------------------------------|
A:--------------------------------------------------------------|
D:0-------------3-------------5----------8-------10----------12-|


Song Structure:

First Riff
Second Riff
Third Riff
Fourth Riff
Fill
Main Riff
Second Riff
Third Riff
Slow Version of Main Riff
Faster Version of Main Riff
Finishing Riff


      Thanks, Listen to the song and you'll get it really easy.

            
            
Suggest correction
Creating personal tab
Creating personal tab
You can edit any tab online and save it as your Personal.

You can edit, replace or remove any tab part or add personal notes – all changes will be seen only by you.

Personal tabs can be accessed anytime from any device, even offline.
Learn more »
Give kudos to tab author, rate the tab!
1 2 3 4 5
comments
print report bad tab
1 comment total.
0 reply
ManSqeezums 10 Jul 20, 2010 10:04 PM

Fourth Riff
G:-----------------------------------|
D:-----------------------------------|
A:-----------------------------------| X3
D:0----6-5-----3-5-6-7--0----6-5-----|

I actually posted this tab, but i didnt have an account back then. And the Fourth Riff is slightly wrong...my bad.
Here's how it's really played...
Instead of ---3-5-6-7--- on the D, its actually ---3-4-5-6--
i figured this out like 20 mins after posting it. Okay there you go.

guest
Wanna post a correction for this tab? Suggest correction