Oops, an error
Loading. Please wait.

Hurricane Jane bass

6,819 views 6 this week
2 commentsread comments
1 2 3 4 5
x 5
add to favorites
×
Save as Personal and add changes to this tab that will be seen only by you. Learn more ›
×
You can save this tab as Personal to edit and correct it or add notes. All changes will be seen only by you. Learn more »
launch autoscroll
font size
0
reset
guitar tuner
edit
Autoscroll
slow
fast
+/-
esc
set tempo
stop
Author
Difficulty
------------------------------------------------------------------------------
                             Hurricane jane - Black Kids
-------------------------------------------------------------------------------

Tabbed By : Rocko872 (José Rodrigo Moreno Elizondo)
e-mail: rocko_872@hotmail.com

Tuning: G D A E

riff 1 (Jane, I've made it plain...):
G|-----------------------------------------------------|\
D|------9-9---------9-9---------9-9---------6h7-6------||x 2
A|------------------------------------------------9-7--||
E|-5-----------4-----------9-----------7---------------|/

riff 2 (You can't spend the night..):
G|--------------------------------------------|
D|------6----------6----------6--------6------|
A|----7---7------7---7------7---7--------9-7--|
E|-5----------5----------9----------9---------|

riff 1 (Jane, I've seen you at the club...):
G|-----------------------------------------------------|\
D|------9-9---------9-9---------9-9---------6h7-6------||x 2
A|------------------------------------------------9-7--||
E|-5-----------4-----------9-----------7---------------|/

riff 2 (You can't spend the night..):
G|--------------------------------------------|\
D|------6----------6----------6--------6------||x 2
A|----7---7------7---7------7---7--------9-7--||
E|-5----------5----------9----------9---------|/

riff 3 (it's friday night...):
G|-------------------------------------------------------|\
D|------------------------7-6----------------------------||
A|-----7-----7-7-9-7--7-7-----9-7-----6------------------||
E|-5-5---5------------------------4-4---4--6-7-9-9p7/9-9-||
                                                          |
G|-------------------------------------------------------||
D|------------------------7-6----------------------------||
A|-----7-----7-7-9-7--7-7-----9-7-----6------------------|> x 2
E|-5-5---5------------------------4-4---4--6-7-9-9p7/9-9-||
                                                          |
G|-------------------------------------------------------||
D|-7-7--9-7----------7----7-----6-6--7-6-----------------||
A|----------9-7--7-9----9---9------------9-7-------------||
E|---------------------------------------------9-9p7/9-9-|/

riff 4 (Jane, I've seen the pain you've dealt..):
G|-----------------------------------------------------|
D|------9-9---------9-9---------9-9---------6h7-6------|
A|------------------------------------------------9-7--|
E|-5-----------4-----------9-----------7---------------|
 
G|-----------------------------------------------------|
D|------9-9-9-9-----9-9-9-9-----9-9-9-9-----6h7-6------|
A|------------------------------------------------9p7--|
E|-5-----------4-----------9-----------7---------------|

riff 2 (You can't spend the night..):
G|--------------------------------------------|\
D|------6----------6----------6--------6------||x 2
A|----7---7------7---7------7---7--------9-7--||
E|-5----------5----------9----------9---------|/

riff 5 (it's friday night...):
G|-------------------------------------------------------|
D|------------------------7-6----------------------------|
A|-----7-----7-7-9-7--7-7-----9-7-----6------------------|
E|-5-5---5------------------------4-4---4--6-7-9-9p7/9-9-|
                                                          
G|-------------------------------------------------------|
D|------------------------7-6----------------------------|
A|-----7-----7-7-9-7--7-7-----9-7-----6------------------| 
E|-5-5---5------------------------4-4---4--6-7-9-9p7/9-9-|
                                                          
G|-------------------------------------------------------|
D|-7-7--9-7----------7----7-----6-6--7-6-----------------|
A|----------9-7--7-9----9---9------------9-7-------------|
E|---------------------------------------------9-9p7/9-9-|

G|-------------------------------------------------------|
D|-7-7--9-7----------7----7-----6-6--7-6-----------------|
A|----------9-7--7-9----9---9------------9-7-------------|
E|---------------------------------------------9-9p7/9-9-|


riff 6 (break):
G|-------------------------------------------------------------|
D|------------------------7-6----------------------------------|
A|-----7-----7-7-9-7--7-7-----9-7-----6--------4-4-6-6-7-7-9-9-|
E|-5-5---5------------------------4-4---4--6-7-----------------|

G|-------------------------------------------------------------|
D|------------------------7-6----------------------------------|
A|-----7-----7-7-9-7--7-7-----9-7-----6----1-2/11-11-12-11-9-7-|
E|-5-5---5------------------------4-4---4----------------------|

G|---------------------------------------------------------------|
D|---------------------------------------------11-11-11-11-11-11-|
A|---------------------------------------------------------------|
E|-5-5----4-4----9-9----7-7----5-5----4-4----9-------------------|

G|---------------------------------------------------------------|
D|---------------------------------------------11-11-11-11-11-11-|
A|---------------------------------------------------------------|
E|-5-5----4-4----9-9----7-7----5-5----4-4----9-------------------|

G|-------------------------------|
D|-11-11-11-11-11-11-11-11-11----|
A|-------------------------------|
E|-----------------------------9-|

G|-------------------------------------------------------|
D|------------------------7-6----------------------------|
A|-----7-----7-7-9-7--7-7-----9-7-----6------------------|
E|-5-5---5------------------------4-4---4--6-7-9-9p7/9-9-|
                                                          
G|-------------------------------------------------------|
D|------------------------7-6----------------------------|
A|-----7-----7-7-9-7--7-7-----9-7-----6------------------|
E|-5-5---5------------------------4-4---4--6-7-9-9p7/9-9-|

riff 7 (it's friday night...):
G|-------------------------------------------------------|
D|-7-7--9-7----------7----7-----6-6--7-6-----------------|
A|----------9-7--7-9----9---9------------9-7-------------|
E|---------------------------------------------9-9p7/9-9-|

G|-------------------------------------------------------------|
D|------------------------7-6----------------------------------|
A|-----7-----7-7-9-7--7-7-----9-7-----6------------------------|
E|-5-5---5------------------------4-4---4--6-7-9-9-9-9-9-9-9-9-|

G|-------------------------------------------------------|
D|-7-7--9-7----------7----7-----6-6--7-6-----------------|
A|----------9-7--7-9----9---9------------9-7-------------|
E|---------------------------------------------9-9p7/9-9-|

G|-------------------------------------------------------------|
D|------------------------7-6----------------------------------|
A|-----7-----7-7-9-7--7-7-----9-7-----6------------------------| 
E|-5-5---5------------------------4-4---4--6-7-9-9p7/9-9----9~-|

That's the whole song, 100% acurate, pretty one. enjoy it.

| /  slide up
| \  slide down
| h  hammer-on
| p  pull-off
| ~  vibrato
| +  harmonic
| x  Mute note
===============================================================================

            
            
Suggest correction
Creating personal tab
Creating personal tab
You can edit any tab online and save it as your Personal.

You can edit, replace or remove any tab part or add personal notes – all changes will be seen only by you.

Personal tabs can be accessed anytime from any device, even offline.
Learn more »
comments
print report bad tab
2 comments total.
0 reply
MILLWALLMAN 10 Aug 10, 2008 12:56 PM

gr8 tab man i gave it 5 stars even tho theres a bit more 2 the verse but it sounds like a realy hard song 2 tab well dun

0 reply
rocko872 428 Aug 10, 2008 01:00 PM

thnx man, i do my best.

guest
You may want to rate the tab now too:
select rating
Wanna post a correction for this tab? Suggest correction