Oops, an error
Loading. Please wait.

Im Not Going To Teach Your Boyfriend How To Dance With You bass

11,902 views 3 this week
2 commentsread comments
1 2 3 4 5
x 7
add to favorites
×
Save as Personal and add changes to this tab that will be seen only by you. Learn more ›
×
You can save this tab as Personal to edit and correct it or add notes. All changes will be seen only by you. Learn more »
launch autoscroll
font size
0
reset
guitar tuner
edit
Autoscroll
slow
fast
+/-
esc
set tempo
stop
Difficulty
Very Simple, mainly the same thing repeated over and over, listen to the song to get the rhythm.


Main Riff
G|--------------------|-------------------------|--------------------|-----------------|
D|-----10---10---10---|-------12----12----12----|--------------------|-----------------|
A|-8-8----8----8----8-|-10-10----10----10----10-|-----10---10---10---|-----7---7---7---|
E|--------------------|-------------------------|-8-8----8----8----8-|-5-5---5---5---5-|

Variation at end of song

G|--------------------|-------------------------|--------------------|---------------|
D|-----10---10---10---|-------12----12----12----|--------------------|---------------|
A|-8-8----8----8----8-|-10-10----10----10----10-|-----10---10---10---|---------------|
E|--------------------|-------------------------|-8-8----8----8----8-|-5---5---5---5-|

End on 

E|-5-5-5-5-5-5-|

            
            
Suggest correction
Creating personal tab
Creating personal tab
You can edit any tab online and save it as your Personal.

You can edit, replace or remove any tab part or add personal notes – all changes will be seen only by you.

Personal tabs can be accessed anytime from any device, even offline.
Learn more »
comments
print report bad tab
2 comments total.
0 reply
barb3rman 121 Oct 14, 2008 05:20 PM

There is a variation on the main riff in the part where they go:

One,
I'm biting my tongue
Two,
He's kissin' on you
Three,
Oh, why can't you see?
One! Two! Three! Four!

What's here works though.

0 reply
k8mc 391 Dec 28, 2010 03:56 AM

yeah, during the 1,2,3,4 part it goes:

G|--------------------|-------------------------|------------------------|-----------------|
D|-----10---10---10---|-------12----12----12----|-----10----10----10-----|-------------5-7-|
A|-8-8----8----8----8-|-10-10----10----10----10-|--------10----10----10-|---------7-7-----|
E|--------------------|-------------------------|-8-8--------------------|-5-5-5-5---------|

guest
Wanna post a correction for this tab? Suggest correction