Oops, an error
Loading. Please wait.

Wash It Away tab

version 2
version 2

Whole song

641 views 1 this week
no commentswrite comment
1 2 3 4 5
2 more votes to show rating
add to favorites
×
Save as Personal and add changes to this tab that will be seen only by you. Learn more ›
×
You can save this tab as Personal to edit and correct it or add notes. All changes will be seen only by you. Learn more »
launch autoscroll
font size
0
reset
how to read this tab
guitar tuner
edit
Autoscroll
slow
fast
+/-
esc
set tempo
stop
|-------------------------------------------------------------------------|
|-------------------------------------------------------------------------|
|----7--6----------------------------------7--6---------------------------|
|------------7--5------------5--------------------7--5------------5/7--7--|
|-0-------------------7---7-----7--5/4--0------------------7---7----------|
|-------------------------------------------------------------------------|

|-------------------------------------------------------|
|-------------------------------------------------------|
|----7-----6--------------------------------------------|
|----------------7-----5----------------5---------------|
|-0--------------------------7-----7---------7----5/4---|
|-------------------------------------------------------|

|--------------------------------------------------------------------------|
|--------------------------------------------------------------------------|
|------6--6------6-----6------7---------4-------4------4-----7-------------|
|-5h7--7--7------7-----7------6---------5-------5------5-----5--5---5------|
|-0----------0------0-----0---0---0--0------0---0---0-----0-----0---0--0-0-|
|--------------------------------------------------------------------------|

|---------------------------------------------------|
|---------------------------------------------------|
|------7-----6--------------------------------------|
|------------------7-----5----------------5/7----7--|
|-0----------------------------7-----7--------------|
|---------------------------------------------------|

|--------------------------------------------------------------------------|
|--------------------------------------------------------------------------|
|------6--6------6-----6-----6-----------4-------4------4-----7------------|
|-5h7--7--7------7-----7-----7-----------5-------5------5-----5--5---5-----|
|-0----------0------0-----0--0---0---0-------0---0---0-----0-----0---0-0-0-|
|--------------------------------------------------------------------------|

|---------------------------------------------------------------------|
|---------------------------------------------------------------------|
|---------------------------------------------------------------------|
|---------------------------------------14----------16-------12-------|
|-(7)/(11)----------(7)/(11)------------------------------------------|
|---------------------------------------------------------------------|

|-------------------------------------------------------------------------|
|-------------------------------------------------------------------------|
|-------------------------------------------7-------6---------------------|
|-14----------16-------12-------(12)/-------------------7-------5---------|
|---------------------------------------0---------------------------7--7--|
|-------------------------------------------------------------------------|

|--------------------------------------------------------|
|--------------------------------------------------------|
|---------------------6--6------------4-------------7-7--|
|-5/7-7-------5h7-7-7-7--7---7--9/7-7----5---5----5-5-5--|
|-------------0-------0--0---0-----------0---0----0------|
|--------------------------------------------------------|

|-----------------------------------------------------------------|
|-------------------5--5-----5-----5--5-------3--3-----3--3--3----|
|-------------------6--6-----6-----6--6-------4--4-----2--2--2----|
|-16-------12-------7--7-----7-----7--7-------5--5-----4--4--4----|
|-----------------------------------------------------------------|
|-----------------------------------------------------------------|

|----------------------------------------------------------------|
|------------------------------------3-------3-------3---3---3---|
|------------------------------------4-------4-------2---2---2---|
|-5h7---7-------7-------7----7-------5-------5-------4---4---4---|
|-0-----0-------0-------0----0-----------------------------------|
|----------------------------------------------------------------|
  Repeat above

|------------------------------3-------3-----------------------------|
|------------------------------3-------3-------7--7--7-----7-----7---|
|------------------------------4-------4-------7--7--7-----7-----7---|
|-7h9/11---11---------11---7---5-------5-------7--7--7-----7-----7---|
|-0--------0------0------------5-------5-------5--5--5-----5-----5---|
|------------------------------3-------3-----------------------------|

|--------------------------------------2-----2-----3-----3--|
|---------------------------2----------3-----3-----3-----3--|
|---------------------------2----------2-----2-----0-----0--|
|---------------------------2----------0-----0-----0-----0--|
|-12h11p12h11p12h11p12------0----------0-----0-----2-----2--|
|--------------------------------------------------3-----3--|

|------------2-----2----2----3----3----3------------------------|
|-2----------3-----3----3----3----3----3-------2----------------|
|-2----------2-----2----2----0----0----0-------2----------------|
|-2----------0-----0----0----0----0----0-------2----------------|
|-0----------0-----0----0----2----2----2-------0-----7---5--4---|
|----------------------------3----3----3------------------------|

|-2-------2----2----3----3----3------------------2-----2---2---3---3---3--|
|-3-------3----3----3----3----3-------2----------3-----3---3---3---3---3--|
|-2-------2----2----0----0----0-------2----------2-----2---2---0---0---0--|
|-0-------0----0----0----0----0-------2----------0-----0---0---0---0---0--|
|-0-------0----0----2----2----2-------0----------0-----0---0---2---2---2--|
|-------------------3----3----3--------------------------------3---3---3--|

|--------------------------------------------------------------------------|
|--------------------------------------------------------------------------|
|--------------------------------------------------------------------------|
|-7--9--11--11--------11----11--11--12--11--9-----9--7---9--7--9--9/11--11-|
|------------------0--0------------------------9---------------------------|
|--------------------------------------------------------------------------|

|-------------------------------------------------------------------------|
|-----------------------10-10-10-10---------------------------------------|
|-------------------------------------------------------------------------|
|-----11-11-12/7-----7--7--7--7--7--7---9---11---11--------11-11-----11---|
|-0-----------------------------------------------------0--0--0---0-------|
|-------------------------------------------------------------------------|

|----------------------------------------------------------------------|
|----------------------------------------------------------------------|
|----------------------------------------------------------------------|
|-12--11--9--11--9--7------7--9--11--11--------11-----11-12/7----------|
|-----------------------0-----0--0---0------0------0-------------------|
|----------------------------------------------------------------------|

|---------------------------------------------------------------------------|
|---------------------------------------------------------------------------|
|-----7--6-7---6----6----------------------------6--6--6--7/9-9-9-/11-11-11-|
|----------------7-----7--7/5--5--7---5----5--------------------------------|
|-0-------------------------------------7----7-5-4--4--4--5/7-7-7-/9--9--9--|
|---------------------------------------------------------------------------|

|----------------------------------------------------------------------|
|----------------------------------------15-15p14-15-15-15-14----14----|
|-11-11-11111111-11--11-11--7-7-7-7--7------------------------14----14-|
|----------------------------------------------------------------------|
|-9--9--9-9-9-9--9---9---9--5-5-5-5----0-------------------------------|
|----------------------------------------------------------------------|

|-----------------------------------------------------------------------|
|-14/12-12--12---14---12-------12-------------------14/15---15-15-15/17-|
|------------------------14-14----14-12/11-12p11-11---------------------|
|---------------------------------------------------11/12---12-12-12/14-|
|-----------------------------------------------------------------------|
|-----------------------------------------------------------------------|

|--------------------------------------------------------------------------|
|------------------18--18--18--18/15---15---15---15---(17)-----------------|
|---17-17-17-17-17---------------------------------------------------------|
|------------------15--15--15--15/12---12---12---12---(14)h15p14-----------|
|---14-14-14-14-14------------------------------------------------(14)h15/-|
|--------------------------------------------------------------------------|

            
            
Suggest correction
Creating personal tab
Creating personal tab
You can edit any tab online and save it as your Personal.

You can edit, replace or remove any tab part or add personal notes – all changes will be seen only by you.

Personal tabs can be accessed anytime from any device, even offline.
Learn more »
Give kudos to tab author, rate the tab!
1 2 3 4 5
comments
print report bad tab
guest
Wanna post a correction for this tab? Suggest correction