Oops, an error
Loading. Please wait.

New Religion bass

version 1
version 1

Whole song

Interactive

747 views 1 this week
no commentswrite comment
1 2 3 4 5
3 more votes to show rating
add to favorites
×
Save as Personal and add changes to this tab that will be seen only by you. Learn more ›
×
You can save this tab as Personal to edit and correct it or add notes. All changes will be seen only by you. Learn more »
launch autoscroll
font size
0
reset
guitar tuner
edit
Autoscroll
slow
fast
+/-
esc
set tempo
stop
Author
----------------------------------------------------------------------------
			     New Religon - Black Label Society
----------------------------------------------------------------------------

This is played with a five string bass tuned down one whole step

Verse
F ----------------------------------------|
C ----------------------------------------|
G ----------------------------------------|
D ----------------------------------------|
A 5----5-5-----3---3--5\-----5-5-----3-3--| X3

then play
F -------------------------------------------|
C -------------------------------------------|
G -------------------------------------------|
D 0-12-10-0-13-12-0-12-10-0-13-12-0-12-10-12-|
A -------------------------------------------|


Chorus
F ------------------------------------------------------------------|
C --------------------------10--------------------------------------|
G -----------------------10----10-----------------------------------|
D ----------------8---------------8--10-----------------------------|
A 5----5--5--/8---------------------------/5----5--3--/5---5--3--/5-| to coda

[1]                        [2]
F -----------------         F -----------------------|
C -----------------         C 7--5--------7--5-------|
G ---5(B)----------         G ------5--7--------7--5-|
D 0--------6--5--3-         D -----------------------|
A -----------------         A -----------------------|

then
F -------------------------------------------------------------------|
C ---------------------10--------------------------------------------|
G ------------------10----10----------------------------5(B)---------|
D ------------8---8----------8-10-0-------------------0------6--5--3-|
A /5-5-3/5-5/------------------------/5--5/5----5/5-5----------------|

F ------------------------------------|
C ----------------------10------------|
G -------------------10----10---------|
D -------------8---8----------8-10----|
A /5---5/5---5/---------------------0-|


Guitar Solo
F ------------5-------------------------------------------------|
C --------5-------5---------------------------------------------|
G 3-------------------3---------------3--------3-------5--------|
D --------------------------------3-------3-------------------0-|
A --------------------------------------------------------------|

F ---------------------------------------------------------------------------|
C ---------------------------------------------------------------------------|
G 5~----/7-----7------7------7/------/9------9----9----9/----10----10--10/12-|
D ---------------------------------------------------------------------------|
A ---------------------------------------------------------------------------|
reat until solo ends

For the outro just keep playing the verse riffs
its pretty easy to figure it out


Hope this helped! Please comment

            
            
Suggest correction
Creating personal tab
Creating personal tab
You can edit any tab online and save it as your Personal.

You can edit, replace or remove any tab part or add personal notes – all changes will be seen only by you.

Personal tabs can be accessed anytime from any device, even offline.
Learn more »
Give kudos to tab author, rate the tab!
1 2 3 4 5
comments
print report bad tab
guest
You may want to rate the tab now too:
select rating
Wanna post a correction for this tab? Suggest correction