Oops, an error
Loading. Please wait.

Stronger Than Death album tab

version 1
version 1

Album

Whole song

Interactive

5,461 views 1 this week
2 commentsread comments
1 2 3 4 5
2 more votes to show rating
add to favorites
×
Save as Personal and add changes to this tab that will be seen only by you. Learn more ›
×
You can save this tab as Personal to edit and correct it or add notes. All changes will be seen only by you. Learn more »
launch autoscroll
font size
0
reset
how to read this tab
guitar tuner
edit
Autoscroll
slow
fast
+/-
esc
set tempo
stop
All For You

Dropped D tuning

E|------------------------------------------------------------|
B|------------------------------------------------------------|
G|------------------------------------------------------------|
D|------------------------------------------------------------|
A|------------------------------------------------------------|
D|--10-12-12--10-12-12--10-12-12--10-12-12--10-12-10-12-------|

E|------------------------------------------------------------|
B|------------------------------------------------------------|
G|------------------------------------------------------------|
D|------------------------------------------------------------|
A|----------------------------------------3--5--3-------------|
D|--10-12-12-10-12-12-10-12--0--6--0--6---0-----0-------------|

E|------------------------------------------------------------|
B|------------------------------------------------------------|
G|------------------------------------------------------------|
D|------------------------------------------------------------|
A|--------3--5--5--3------------------------------------------|
D|--0--0--0--------0--0--0--0--5-5-6-6-5-3--------------------|

E|------------------------------------------------------------|
B|------------------------------------------------------------|
G|------------------------------------------------------------|
D|------------------------------------------------------------|
A|--3-5--3------3--5--5---------------------------------------|
D|--0----0--0-0-0--------3--5--5--3--5--3---------------------|


Lead:

E|------------------------------------------------------------|
B|------------------------------------------------------------|
G|------------------------------------------------------------|
D|----------12------------12-14-----15-14-12------------------|
A|-12-13-14---------13-14--------------------14--12-----------|
D|------------------------------------------------------------|

E|------------------------------------------------------------|
B|----------------------12-14---15-14-12----------------------|
G|-----------12---14-15------------------15---14--------------|
D|--12-13-14--------------------------------------------------|
A|------------------------------------------------------------|
D|------------------------------------------------------------|

E|----------------------12-14---15-14-12----------------------|
B|-----------12---14-15------------------15---14--------------|
G|--12-14-15--------------------------------------------------|
D|------------------------------------------------------------|
A|------------------------------------------------------------|
D|------------------------------------------------------------|

E|------------------------------------------------------------|
B|------------------------------------------------------------|
G|-10---22-22---10---10--22---22---9---21-21---9---9--21---21-|
D|------------------------------------------------------------|
A|------------------------------------------------------------|
D|------------------------------------------------------------|

E|------------------------------------------------------------|
B|-----------------^----------------------^-------------------|
G|-19--7--19--7---12-12---12--19--19--19--5--5-------5--------|
D|------------------------------------------------------------|
A|------------------------------------------------------------|
D|------------------------------------------------------------|

E|--XX---^-------------10-----------------10------------------|
B|------12-12--12--12-----13--10--------------13--10---13--13-|
G|--------------------------------12---12---------------------|
D|------------------------------------------------------------|
A|------------------------------------------------------------|
D|------------------------------------------------------------|

E|-10--12--10--13--10--12--10------------^-----10-------------|
B|-----------------------------13--10--13-13-------13--10-----|
G|---------------------------------------------------------12-|
D|------------------------------------------------------------|
A|------------------------------------------------------------|
D|------------------------------------------------------------|

E|------------------------------------------------------------|
B|-10--13--10-----10--13--10-----10--13--10-----10--13--10----|
G|------------12-------------12-------------12-------------12-|
D|------------------------------------------------------------|
A|------------------------------------------------------------|
D|------------------------------------------------------------|

E|------------------------------------------------------------|
B|-10--12--10--13--10--12--10-------10-15----10--15----10--15-|
G|-------------------------------13-------13--------13--------|
D|------------------------------------------------------------|
A|------------------------------------------------------------|
D|------------------------------------------------------------|

E|------------------------------------------------------------|
B|-----10-15-----10-15-----10---------------------------------|
G|--13--------13--------13-----14------14---------------------|
D|------------------------------------------------------------|
A|------------------------------------------------------------|
D|------------------------------------------------------------|

E|---------------------------------------------------------------|
B|------------------------------------------------------13-15-17-|
G|---------------------14-15-17----/-----------14-15-17----------|
D|-----------14-15-17------------/---14-15-17--------------------|
A|-13-15-17------------------------------------------------------|
D|---------------------------------------------------------------|

E|-------------------13-15-17--15-17-13----13--------13---------|
B|----------13-15-17--------------------17----17-17--17--17--15-|
G|-14-15-17-----------------------------------------------------|
D|--------------------------------------------------------------|
A|--------------------------------------------------------------|
D|--------------------------------------------------------------|

Phoney Smiles and Fake Hellos
Tuning: A A D G B E

with Tremolo
e-----------------------------------------------------|
B-----------------------------------------------------|
G-----------------------------------------------------|
D-----------------------------------------------------|
A-----------------------------------------------------|
A--12--10--6-----5--3--0------------------------------|

verse
e-----------------------------------------------------|
B-----------------------------------------------------|
G-----------------------------------------------------|
D-----------------------------------------------------|
A--------------0h7p0-6-5b6----------------------------|
A--0-0-0-0-0-0-0h7p0-6-5b6----------------------------|

chorus
e-----------------------------------------------------|
B-----------------------------------------------------|
G---------ph*-----------------------------------------|
D-----------------------------------------------------|
A--12--10------------------5--3-3-0-------------------|
A--12--10--6----0--0-0---0h5--3-3-0---0-0-0-0-0-0-----|


e---------------------------------------------------------|
B---------------------------------------------------------|
G---------ph*---------------------------------------------|
D---------------------------------------------------------|
A--12--10------------------5--3-3-0-----------------------|
A--12--10--6----0--0-0---0h5--3-3-0--0-3-0-3-0-3-0-3-0-3--|


e-----------------------------------------------------|
B-----------------------------------------------------|
G---------ph*-----------------------------------------|
D-----------------------------------------------------|
A--12--10------------------5--3-3-0-------------------|
A--12--10--6----0--0-0---0h5--3-3-0---0-0-0-0-0-0-----|

e-----------------------------------------------------|
B-----------------------------------------------------|
G---------ph*-----------------------------------------|
D-----------------------------------------------------|
A--12--10------------------5--3-3-0-------------------|
A--12--10--6----0--0-0---0h5--3-3-0-------------------|

e-----------------------------5--5b7-5b7--------------|
B-----------------------------------------------------|
G-----------------------------------------------------|
D-----------------------------------------------------|
A--0--2-2------------0--2-2---------------------------|
A--0--2-2--0/14\0----0--2-2---------------------------|

e-----------------------------------------------------|
B-----------------------------5b6r5-3-----------------|
G-----------------------------------------------------|
D-----------------------------------------------------|
A--0--2-2------------0--2-2---------------------------|
A--0--2-2--0/14\0----0--2-2---------------------------|

SOLO!!
		     x4         x4       x4
e----------------------|----------|---------|------------|
B----------9--------9--|--------8-|-------7-|------------|
Go--9-9b11---9-9b11---o|-8-8b10---|-7-7b9---|------------|
Do--------------------o|----------|---------|------------|
A----------------------|----------|---------|------------|
A----------------------|----------|---------|------------|

1,3.......................  2..........................
e--------------------------|-----------------------------|
B--------------------------|-----------------------------|
Go-6-4---4-----------------|--6-4---4---------------6----|
Do-----6---6-4-6-4-2-4-2---|------6---6-4-6-4-2-4-2-6----|
A------------------------4-|------------------------4----|
A--------------------------|------------------------4----|

  4.............................................
e------------------------------|
B------------------------------|
G----------------4------------o|
D----2-4-2-4-5-6---6-5-6-4-2--o|
A--4---------------------------|
A------------------------------|
  i'm not sure about this riff.

then play the verse and the chorus again


I think this solo is better...

E|---------------------------------------------------------|
B|----7-12-7----7-12-7----7-12-7----7-12-7-----------------|
G|-10--------10--------10--------10--------10--------------|
D|---------------------------------------------------------|
A|---------------------------------------------------------|
A|---------------------------------------------------------|

E|---------------------------------------------------------|
B|----6-11-6-----6-11-6----6-11-6----6-11-6----------------|
G|--9----------9---------9---------9-----------------------|
D|---------------------------------------------------------|
A|---------------------------------------------------------|
A|---------------------------------------------------------|

E|---------------------------------------------------------|
B|-----5--10--5-----5--10--5-----5--10--5-----5--10--5-----|
G|--8------------8------------8------------8---------------|
D|---------------------------------------------------------|
A|---------------------------------------------------------|
A|---------------------------------------------------------|

E|----------------------------------------------------------|
B|----6-11-6-----6-11-6----6-11-6----6-11-6----5-10-5-------|
G|--9----------9---------9---------9---------8--------5-9-5-|
D|----------------------------------------------------------|
A|----------------------------------------------------------|
A|----------------------------------------------------------|

E|---------------------------------------------------------|
B|---------------------------------------------------------|
G|--6-4---4-----------------6-4---4------------------------|
D|------6---6-5-6-5-44----------6---6-5-6-5-4--6-----------|
A|---------------------7-4---------------------4-----------|
A|---------------------------------------------------------|

E|---------------------------------------------------------|
B|--6-4---4---------------------------4--------------------|
G|------6---6-5-6-5-4-4---------4-5-6---6-5-4---454--------|
D|----------------------7-4-4-7----------------------7-----|
A|---------------------------------------------------------|
A|---------------------------------------------------------|

13 Years of Grief

Tuning: B A D G B E

Intro starts off by putting your left hand lightly over your neck pickup area
(to get the harmonics) while picking and moving your left hand up towards the bridge.

E|-----------------------------------------------------------|
B|-----------------------------------------------------------|
G|-----------------------------------------------------------|
D|-----------------------------------------------------------|
A|-----------------------------------------------------------|
B|-0-1-0---0----0----0-3-0-1---0---0---3-0-3-5-6-0--6--------|

Lead:

E|-----------------------------------------------------------|
B|-9--12-9-----9---------------------------------------------|
G|---------12-----12-11-9----11----9----9--------------------|
D|------------------------11----11---11---11--10--9----------|
A|-----------------------------------------------------------|
B|-----------------------------------------------------------|

E|-------------------------------------------------------------|
B|-9--12-9-----9-----------------------------------------------|
G|---------12-----12-11-9--------------------------------------|
D|------------------------11--11-9------11-9-------11-9--------|
A|---------------------------------11-9------11-9--------11-11-|
B|-------------------------------------------------------------|

E|-----^--------------------------------------------------------| |r
B|----11--11-14-11---------11-14-11--------11-14-11-------------|e
G|-13-13------------13-13-----------13-13------------13--13-----| |p
D|--------------------------------------------------------------| |e
A|--------------------------------------------------------------|a
B|--------------------------------------------------------------| |t


E|------------------------------------11---------------------|
B|--11--14--11------14-14---14---14--------------------------|
G|--------------13-------------------------------------------|
D|-----------------------------------------------------------|
A|-----------------------------------------------------------|
B|-----------------------------------------------------------|

E|-13-14-11-13----11-------11-13-11--------------------------|
B|-------------14----13-14----------13-14-11-13----11--------|
G|----------------------------------------------14----13-14--|
D|-----------------------------------------------------------|
A|-----------------------------------------------------------|
B|-----------------------------------------------------------|

E|-----------------------------------------------------------|
B|--11-13-11-------------------------------------------------|
G|-----------13-14-11-11-11----------------------------------|
D|--------------------------13--------------11-12-13-13------|
A|------------------------------11-12-13-13------------------|
B|-----------------------------------------------------------|

E|-----------------------------------------------------------|
B|-------------------11--13--14--14-14-----------------------|
G|--11--13--14--14-------------------------------------------|
D|-----------------------------------------------------------|
A|-----------------------------------------------------------|
B|-----------------------------------------------------------|

Rust

standard tuning

-----------------------------------|----------------------------------------|
-----------------0-----------------|---------------0------------------------|
----------0--------0---0-----0-----|---------0-------0-------0-----0--------|
-----4------4--------4---4-----4---|-----4-----4-------4---0-----4----------|
---2---2------2------------2-----2-|---2---4-----2-------------5------------|
-0---------------------------------|-0-------------------2-----------0------|
intro

						1...............  2...........
--------0------|--------0------|---------------|-----------------|----------|
----------0----|----------0---0|--------3------|---------3-------|-3--------|
----4-------4--|----4-------4--|----4-----4---4|-------0---0-----|-0--------|
------2-------2|------2--------|------0-----0--|---0-4-------4---|-4--------|
---------------|-3-------------|-2-------------|-5-------------5-|-5--------|
-0-------------|---------------|---------------|-----------------|----------|
chorus
						3..............  4............
--------0------|--------0------|---------------|----------------|------------|
----------0----|----------0---0|--------3------|---------3------|-3----------|
----4-------4--|----4-------4--|----4-----4---4|-------0---0----|-0----------|
------2-------2|------2--------|------0-----0--|---0-4-------4--|-4----------|
---------------|-3-------------|-2-------------|-5-------------5|-2----------|
-0-------------|---------------|---------------|----------------|-0----------|

-------------------|---------------------------------|----------------------|
-------------------|---------------0-----------------|----------------------|
-------------------|---------0-------0---0-----0-----|----0-----0-----------|
-2-4-2-0-----------|-----4-----4-------4---4-----4---|--0-----4-------------|
---------0h1p0---0-|---2---2-----2-----------2-----2-|------5---------------|
---------------3---|-0-------------------------------|2-----------0---------|


-|----------------------------------|-------------------------0-------------|
-|----------0-------0---------------|---------3-----------------3-----------|
-|o-----0-----0-------0-------0-----|-------3---3-----------2-----4---------|
-|o---2---2-----2-------2---2---2---|-----3-------3-------2-----------------|
-|--3-------------3-------3-------3-|-1-------------1-0---------------------|
-|----------------------------------|---------------------------------------|
    solo backing

------------------------------------|---------0---------------0---------|---|
------------0---------------0-------|-----------3---------------3-------|---|
--------0-----0---------0-----0-----|-----3-------3-------2-------4----o|---|
------2---2-----2-----2---2-----2---|---3---3-------3---2---2-------5--o|---|
----3-------------3-3-------------3-|-1---------------0-----------------|---|
------------------------------------|-----------------------------------|---|


-------2-------2-------2-------2-------2-------2-------2--------------------|
---3-----3-------3-------3-------3-------3-------3-------3------------------|
-----2-----2-------2-------2-------2-------2-------2-------2----------------|
-0-----------0-------0-------0-------0-------0-------0-------0--------------|
----------------------------------------------------------------------------|
----------------------------------------------------------------------------|

'Rust melody'
  Gtr I
|-----------------------------------------|
|-----------------------------------------|
|-/15--14--12--9--7----------------7b9----|
|--------------------/8--7--5-------------|
|------------------------------7----------|
|-----------------------------------------|

Solo

|--------------------------|-|-----------------|-|-----------------|
|--------------------------|-|-----------------|-|-----------------|
|-15-14-12-9-7-------------|o|9-11-12-14-15-13^|o|-9-11-12-14-15-14|
|--------------8-7-5-------|o|-----------------|o|-----------------|
|--------------------7--5^-|-|-----------------|-|-----------------|
|--------------------------|-|-----------------|-|-----------------|

|----------------------------------------------------------------12-----|
|-----------------------------------------------------15-15^-15^---15---|
|---------------------------------------------12-14-15------------------|
|------------------------------------12-14-15---------------------------|
|---------------------------12-14-15------------------------------------|
|-12-0-10-12-14-15-12-14-15---------------------------------------------|

|----15^-(17)^15--------------14-----------------------------------|
|-12-----(17)^15-15-15-----------13----14----------------15--------|
|----------------------12^-14-------12----12----14----12-----------|
|--------------------------------------------11----11--------------|
|------------------------------------------------------------------|
|------------------------------------------------------------------|

|-|------------------|-|--------------------------------------------------|
|-|-12---------------|-|-12----------------12\----------------------------|
|o|----14-12-11-12-14|o|----14-12-11-12-14------------------------9-11-12-|
|o|------------------|o|----------------------------------10-12-14--------|
|-|------------------|-|-------------------------10-12-14-----------------|
|-|------------------|-|--------------------------------------------------|

|--------------------------------------------------------------|
|-12-10-8------------------------------------------------------|
|---------12-11-9----------------------------------------------|
|-----------------14-12-10-------------------------------------|
|--------------------------14-12-10----------14-12-10----------|
|-----------------------------------14-12-10----------14-10-12-|

|--------------------------------------------------------------|
|--------------------------------------------------------------|
|--------------------------------------------------------------|
|--------------------------------------------------------------|
|-14-12-10----------12-10-7---------10-7-5--------7-5-3--------|
|----------14-12-10---------12-10-7--------10-7-5-------7-5-3-0|

|--------------------------------------------------------------|
|—trill-------15^----------------------------------------------|
|-14(15)-------------------------------------------------------|
|--------------------------------------------------------------|
|--------------------------------------------------------------|
|--------------------------------------------------------------|

Superterrorizer

tuning: Drop D
all XXXXXX are rakes of the part of the string that lies between the bridge
and the saddle.

--------------------------------------------------------------------|-x------|
--------------------------------------------------------------------|--x-----|
-----ph-------------------------------------------------------------|---x----|
-------------------------ph--ph--6-----5-----2/3---3-2---5/6-5/6----|----x---|
--3-4-5-------------3------------6-0-0-5-0-0-2/3-0-3-2-0-5/6-5/6----|-----x--|
--------3-4-5-5-6-7---6-5-3-0-3--6-0-0-5-0-0-2/3-0-3-2-0-5/6-5/6----|------x-|
  intro and chorus riff

1,3			   2		   4
--------------------------|---------------|------x------------x-------------|
--------------------------|---------------|-------x------------x------------|
--------------------------|---------------|--------x------------x-----------|
--------------------------|---------------|---------x------------x----------|
-0-0-0-0-1-0--0-0-0-0-1-0-|0--0-----------|----------x------------x---------|
-0-0-0-0-1-0--0-0-0-0-1-0-|0--0-/10-12-10-|-0-00------x--0-00------x--------|

----------------------------------------------------------------------------|
----------------------------------------------------------------------------|
----------------------------------------------------------------------------|
------------6-5-------------------------------------------------------------|
------------6-5-------------------------------------------------------------|
-12-11-10-7-6-5---0-0-0-0-1-0--0-0-0-0-1-0--0-0-/10-12-10-------------------|
 verse riff

---------------------|----------------|-------------------------------------|
---------------------|----------------|-------------------------------------|
---------------------|----------------|-------------------------------------|
-0--------3-5----3-5-|2------7-5--7-5-|4------9-7--9-7----------------------|
-0--------3-5----3-5-|2------7-5--7-5-|4------9-7--9-7----------------------|
-0--------3-5-00-3-5-|2------7-5--7-5-|4------9-7--9-7----------------------|

Solo(with wah)

E|----------------------------------------------------------------------------------------|
B|-13---------13---------------------12\10-----------13-----13---------------------12\10--|
G|-12(14)----(14)r12-10h12-10~----------------12(14)-------(14)r12-10h12-10~--------------|
D|------------------------------10/12-----------------------------------------10/12-------|
A|----------------------------------------------------------------------------------------|
D|----------------------------------------------------------------------------------------|

Do a pickslide then do this
E|---------------------------------------------------------------------------------|
B|-11-10-----------11-10----------11-10-----------11-10-----------11-10------------|
G|------13-11-----------13-11----------13-11-----------13-11-----------13-11-------|
D|-----------13-11----------13-11-----------13-11-----------13-11-----------13-11--|
A|---------------------------------------------------------------------------------|
D|---------------------------------------------------------------------------------|

E|-----------------------------0tr3-0tr3-0tr3------------------------------|
B|---------------0tr3-0tr3-0tr3--------------0tr3-0tr3-0tr3----------------|
G|-0tr3-0tr3-0tr3------------------------------------------0tr3-0tr3-0tr3--|
D|-------------------------------------------------------------------------|
A|-------------------------------------------------------------------------|
D|-------------------------------------------------------------------------|

E|---------------0tr3-0tr3-0tr3------------------------------------------0tr3-0tr3-0tr3--------|
B|-0tr3-0tr3-0tr3--------------0tr3-0tr3-0tr3--------------0tr3-0tr3-0tr3----------------------|
G|-------------------------------------------0tr3-0tr3-0tr3-----------------------------2(4)~--|
D|---------------------------------------------------------------------------------------------|
A|---------------------------------------------------------------------------------------------|
D|---------------------------------------------------------------------------------------------|

E|-14-------------14------------14-------------14---------------|
B|---17-14----------17-14---------17-14----------17-14------17--|
G|--------17~~-----------16~~----------15~~-----------14~~------|
D|--------------------------------------------------------------|
A|--------------------------------------------------------------|
D|--------------------------------------------------------------|

E|-14----------17(19)--17----------------------------------------------|
B|---17-14----------------17----17(19)------17(19)-------17(19)--------|
G|--------17~-------------17----------16-14--------16-14--------16-14--|
D|---------------------------------------------------------------------|
A|---------------------------------------------------------------------|
D|---------------------------------------------------------------------|

E|--------------------------------------------------------------|
B|----------15-20-15--15-20-15--15-20-15--15-20-15--15-20-15----|
G|-16-14--18--------18--------18--------18--------18--------18--|
D|--------------------------------------------------------------|
A|--------------------------------------------------------------|
D|--------------------------------------------------------------|

E|---------------------------------------------------------------|
B|-17-22-17--17-22-17--17-22-17--17-22-17--17-22-17--17-22-17----|
G|---------20--------20--------20--------20--------20--------20--|
D|---------------------------------------------------------------|
A|---------------------------------------------------------------|
D|---------------------------------------------------------------|

E|----------------------------------------------------------------------------------|
B|-19-17-14--14-17-19-17-14--14-17-19-17-14--14-17-19-17-14--14-17-19-17-14--14-17--|
G|---------16--------------16--------------16--------------16--------------16-------|
D|----------------------------------------------------------------------------------|
A|----------------------------------------------------------------------------------|
D|----------------------------------------------------------------------------------|

E|-------------------------------------------------------------------|
B|---------10-12-13--------10-12-13--------10-12-13--------10-12-13--|
G|-10-12-13--------10-12-13--------10-12-13--------10-12-13----------|
D|-------------------------------------------------------------------|
A|-------------------------------------------------------------------|
D|-------------------------------------------------------------------|

E|-10-12-13-12-10------------------------------10-12-13-12-10--------------10-12-13-13(15)~--|
B|---------------13-12-10--------------10-12-13--------------13-12-10-12-13------------------|
G|-----------------------13-12-10-12-13------------------------------------------------------|
D|-------------------------------------------------------------------------------------------|
A|-------------------------------------------------------------------------------------------|
D|-------------------------------------------------------------------------------------------|

Flick switch
E|--------------------------------------------------------------------------|
B|-13~~~~~~--------13~~~~~~--------13~~~~~~---------------------------------|
G|-12(14)~~--------12(14)~~--------12(14)~~-----does-slides-whilst-picking--|
D|----------------------------------------------on-the-bottom-string--------|
A|--------------------------------------------------------------------------|
D|--------------------------------------------------------------------------|

E|-----------------------------------------------------------------|
B|-------------------------------------------------10-13-13(15)~~--|
G|-------------------------------10-12-------10-12-----------------|
D|-------------10-12-------10-12-------10-12-----------------------|
A|-------10-12-------10-12-----------------------------------------|
D|-10-12-----------------------------------------------------------|
   P.M........       ...........       ...........

Counterfeit God

tune your E string DOWN! to G

e------------------------------------------------------------------------------|
B------------------------------------------------------------------------------|
G------------------------------------------------------------------------------|
D----------------------------------ph-ph---------------------------------------|
A------------------------------------------------------------------------------|
G-0--12-10-12--12-10-12--12-10-12--5--3----------------------------------------|


e------------------------------------------------------------------------------|
B------------------------------------------------------------------------------|
G------------------------------------------------------------------------------|
D------------------------------------------------------------------------------|
A------------------------------------------------------------------------------|
G-0--12-10-12--12-10-12--12-10-12--xxxx----------------------------------------|


e---------------------------------------------------------------------------|
B---------------------------------------------------------------------------|
G---------------------------------------------------------------------------|
D--ph-----ph----------------------------------------------------------------|
A---------------------------------------------------------------------------|
G--3-0--00-3-0--0-0-0-0-0-0-6-5---------------------------------------------|


e---------------------------------------------------------------------------|
B---------------------------------------------------------------------------|
G---------------------------------------------------------------------------|
D---------------------------------------------------------------------------|
A---------------------------------------------------------------------------|
G---5--3--0--0-5--0-0--0-0-0---5--3--0--0-5-00-3-00-5-00-6-00-10------------|

SOLO

   ~~~~~~~~~trill~~~~~~~~   ph
e-------|------|------|--------------------------------------------------------|
B-------|------|------|--------------------------------------------------------|
G--0--7-|-0--6-|-0--5-|-0--3---3-----------------------------------------------|
D-------|------|------|--------------------------------------------------------|
A-------|------|------|--------------------------------------------------------|
G-------|------|------|--------------------------------------------------------|


e---------------------------------------18-15----15--20-18-15------------------|
B------------------18-15----15-20-18-15-------18--------------18-15----15-20---|
G-----15-18--17-15-------18-----------------------------------------18---------|
D--17--------------------------------------------------------------------------|
A------------------------------------------------------------------------------|
G------------------------------------------------------------------------------|


e------------------------------------------------------------------------------|
B--18-15-----------------------------------------------------------------------|
G--------17-15----15-18-17-15-------17~~---------------------------------------|
D--------------17-------------17-15--------------------------------------------|
A------------------------------------------------------------------------------|
G------------------------------------------------------------------------------|


   ~~~~~~~~~trill~~~~~~~~   ph
e-------|------|------|--------------------------------------------------------|
B-------|------|------|--------------------------------------------------------|
G--0--7-|-0--6-|-0--5-|-0--3---3-----------------------------------------------|
D-------|------|------|--------------------------------------------------------|
A-------|------|------|--------------------------------------------------------|
G-------|------|------|--------------------------------------------------------|


e------------------------------------------------------------------------------|
B------------------------------------------------------------------------------|
G----3---0---3---0----/----/----5-3-0-5-3-0----/--/----3-5-3-0-----------------|
D--5---0---5---0-----/----/-------------------/--/----------------5-3-0--------|
A------------------------------------------------------------------------------|
G------------------------------------------------------------------------------|


e--------------------18-15-----------------------------------------------------|
B--------------13-15-------16-15-------17-15-----------------------------------|
G--------12-15-------------------17-15-------17-15-------17-12-------15-12-----|
D--12-15-------------------------------------------17-15-------15-12-----------|
A------------------------------------------------------------------------------|
G------------------------------------------------------------------------------|

e------------------------------------------------------------------------------|
B------------------------------------------------------------------------------|
G--------16-13-------15-12--------14-11-------15-12-------16-13----------------|
D--15-12-------16-13--------15-12-------14-11-------15-12-------16-13----------|
A------------------------------------------------------------------------------|
G------------------------------------------------------------------------------|

e------------------------------------------------------------------------------|
B------------------------------------------------------------------------------|
G--15-12-------14-11-------15-12-------16-13-------15~~~-----------------------|
D--------15-12-------14-11-------15-12-------16-13-----------------------------|
A------------------------------------------------------------------------------|
G------------------------------------------------------------------------------|

e----------------------------------------------17----------18-19-----------13~~-|
B--15~~~~~~~~~--------------------17-----------------16-17-------18-------------|
G-----------------17--------------------16--15----15----------------17-13-------|
D-----------------------16~~~--15----15-----------------------------------------|
A--------------15----15---------------------------------------------------------|
G-------------------------------------------------------------------------------|

Ain't Life Grand

Dropped B


E-----------------------------------------------------------------|
B-----------------------------------------------------------------|
G----------------/--/---------------------------------------------|
D---------------/--/----------------------------------------------|
A--0-0---0-0----------0-0-----------------------------------------|
B------0-----0------------0---0-0--3-5-3--0-3-5-3---0--0--3-5-3---|


E--------------------------------------------------------------------|
B--------------------------------------------------------------------|
G--------------------------------------------------------------------|
D--------------------------------------------------------------------|
A-------------------------------------0------------------0-0---0-0---|
B--0--3-5-3-5--0--0---3-5-3-----0-3-5------0--0---3-5-3------0-----0-|


Solo

E-----------------------------------------------------------------|
B-----------------------------------------------------------------|
G-------19-16-19-------16-19-------16-19-------16-19--------------| repeat
D--/16-----------16-19-------16-19-------16-19-------16-19--------|
A-----------------------------------------------------------------|
B-----------------------------------------------------------------|


E--------------------19--21-21-19----------17-19-18-17------------|
B--19~~~~--19-----21--------------20----18-------------19---------|
G--------------22--------------------19---------------------------|
D-----------------------------------------------------------------|
A-----------------------------------------------------------------|
B-----------------------------------------------------------------|

E-----------14-16-17-16~~~----------------------------------------|
B--15-17-18--------------------------------21-19----19-22-21------|
G------------------------------19-22-21-19-------21---------------|
D---------------------------21------------------------------------|
A-----------------------------------------------------------------|
B-----------------------------------------------------------------|

E-----21-19----19-22-21-19----------------------------------------|
B--19-------21-------------21-19----19-22-21-19-------------------|
G--------------------------------21--------------21-19-------21---|
D------------------------------------------------------21-19------|
A-----------------------------------------------------------------|
B-----------------------------------------------------------------|

Just Killing Time

Tune Down 1/2 step: Low to High- D# G# C# F# A# D#
 Neck pickup, lots of Reverb

Intro                                 4x's
|-----------------|------------------|
|--------4--------|---------1-------.|
|---5-------5-----|---3--------3-----|
|------5--------5-|------3--------3--|
|-3---------------|-1---------------.|
|-----------------|------------------|
 Verse
   I sit reflecting
|-----------------|------------------|
|--------4--------|---------1--------|
|---5-------5-----|---3--------3-----|
|------5--------5-|------3--------3--|
|-3---------------|-1----------------|
|-----------------|------------------|
  I feel the end has begun
|-----------------|------------------|
|--------4--------|---------1--------|
|---5-------5-----|---3--------3-----|
|------5--------5-|------3--------3--|
|-3---------------|-1----------------|
|-----------------|------------------|
  It seems my days
|-----------------|------------------|
|--------4--------|---------1--------|
|---5-------5-----|---3--------3-----|
|------5--------5-|------3--------3--|
|-3---------------|-1----------------|
|-----------------|------------------|
  Now mirror the setting sun
|-----------------|------------------|
|--------4--------|---------1--------|
|---5-------5-----|---3--------3-----|
|------5--------5-|------3--------3--|
|-3---------------|-1----------------|
|-----------------|------------------|
  So many places
|-----------------|------------------|
|--------4--------|---------1--------|
|---5-------5-----|---3--------3-----|
|------5--------5-|------3--------3--|
|-3---------------|-1----------------|
|-----------------|------------------|
  That I've been
|-----------------|------------------|
|--------4--------|---------1--------|
|---5-------5-----|---3--------3-----|
|------5--------5-|------3--------3--|
|-3---------------|-1----------------|
|-----------------|------------------|
  The ride that was long seems so short in the terms of now and then
|-----------------|------------------|
|--------4--------|---------1--------|
|---5-------5-----|---3--------3-----|
|------5--------5-|------3--------3--|
|-3---------------|-1----------------|
|-----------------|------------------|

ooooooo For all that has been
|-------------------------------------------------------------|
|-------------------------------------------------------------|
|-------5---------------4--------------2---------------2------|
|---6-----6--------5-------5-------3------3--------3-----3----|
|-----6-----6---------5-------5-------3------3-------3-----3--|
|-4-------------3----------------1--------------1-------------|
                          And all that is
|-------------------------------------------------------------|
|-------------------------------------------------------------|
|-------5---------------4--------------2---------------2------|
|---6-----6--------5-------5-------3------3--------3-----3----|
|-----6-----6---------5-------5-------3------3-------3-----3--|
|-4-------------3----------------1--------------1-------------|
                          And all thats to be
|-------------------------------------------------------------|
|-------------------------------------------------------------|
|-------5---------------4--------------2---------------2------|
|---6-----6--------5-------5-------3------3--------3-----3----|
|-----6-----6---------5-------5-------3------3-------3-----3--|
|-4-------------3----------------1--------------1-------------|
   (lord im just killin time)
|-------------------------------------------------------------|
|-------------------------------------------------------------|
|-------5---------------4--------------2---------------2------|
|---6-----6--------5-------5-------3------3--------3-----3----|
|-----6-----6---------5-------5-------3------3-------3-----3--|
|-4-------------3----------------1--------------1-------------|
  And times killin' meee (silence when doing this live)
|-----------------|------------------|
|--------4--------|---------1--------|
|---5-------5-----|---3--------3-----|
|------5--------5-|------3--------3--|
|-3---------------|-1----------------|
|-----------------|------------------|

|-----------------|------------------|
|--------4--------|---------1--------|
|---5-------5-----|---3--------3-----|
|------5--------5-|------3--------3--|
|-3---------------|-1----------------|
|-----------------|------------------|
  Dead man breathin'
|-----------------|------------------|
|--------4--------|---------1--------|
|---5-------5-----|---3--------3-----|
|------5--------5-|------3--------3--|
|-3---------------|-1----------------|
|-----------------|------------------|
  Just takin up space
|-----------------|------------------|
|--------4--------|---------1--------|
|---5-------5-----|---3--------3-----|
|------5--------5-|------3--------3--|
|-3---------------|-1----------------|
|-----------------|------------------|
  Calloused and weathered
|-----------------|------------------|
|--------4--------|---------1--------|
|---5-------5-----|---3--------3-----|
|------5--------5-|------3--------3--|
|-3---------------|-1----------------|
|-----------------|------------------|
  Like the lines on one's face
|-----------------|------------------|
|--------4--------|---------1--------|
|---5-------5-----|---3--------3-----|
|------5--------5-|------3--------3--|
|-3---------------|-1----------------|
|-----------------|------------------|
  Dead man breathin'
|-----------------|------------------|
|--------4--------|---------1--------|
|---5-------5-----|---3--------3-----|
|------5--------5-|------3--------3--|
|-3---------------|-1----------------|
|-----------------|------------------|
  My consciene is bare
|-----------------|------------------|
|--------4--------|---------1--------|
|---5-------5-----|---3--------3-----|
|------5--------5-|------3--------3--|
|-3---------------|-1----------------|
|-----------------|------------------|
  The line of my soul is torn yet I no longer care
|-----------------|------------------|
|--------4--------|---------1--------|
|---5-------5-----|---3--------3-----|
|------5--------5-|------3--------3--|
|-3---------------|-1----------------|
|-----------------|------------------|
ooooooo For all that has been
|------------------------------------------------------------|
|------------------------------------------------------------|
|-------5---------------4--------------2---------------2-----|
|---6-----6--------5-------5-------3------3--------3-----3---|
|-----6-----6---------5-------5-------3------3-------3-----3-|
|-4-------------3----------------1--------------1------------|
                          And all that is
|------------------------------------------------------------|
|------------------------------------------------------------|
|-------5---------------4--------------2---------------2-----|
|---6-----6--------5-------5-------3------3--------3-----3---|
|-----6-----6---------5-------5-------3------3-------3-----3-|
|-4-------------3----------------1--------------1------------|
                          And all thats to be
|------------------------------------------------------------|
|------------------------------------------------------------|
|-------5---------------4--------------2---------------2-----|
|---6-----6--------5-------5-------3------3--------3-----3---|
|-----6-----6---------5-------5-------3------3-------3-----3-|
|-4-------------3----------------1--------------1------------|
   (lord im just killin time)
|------------------------------------------------------------|
|------------------------------------------------------------|
|-------5---------------4--------------2---------------2-----|
|---6-----6--------5-------5-------3------3--------3-----3---|
|-----6-----6---------5-------5-------3------3-------3-----3-|
|-4-------------3----------------1--------------1------------|
  And times killin' meee (Silence when doing this line)
|-----------------|------------------|
|--------4--------|---------1--------|
|---5-------5-----|---3--------3-----|
|------5--------5-|------3--------3--|
|-3---------------|-1----------------|
|-----------------|------------------|
                         2x's
|-----------------|------------------|
|--------4--------|---------1-------.|
|---5-------5-----|---3--------3-----|
|------5--------5-|------3--------3--|
|-3---------------|-1---------------.|
|-----------------|------------------|

SOLO                              8x's
|-----------------|------------------|
|--------4--------|---------1-------.|
|---5-------5-----|---3--------3-----|
|------5--------5-|------3--------3--|
|-3---------------|-1---------------.|
|-----------------|------------------|
                                                             4x's
|-------------------------------------------------------------|
|------------------------------------------------------------.|
|-------5---------------4--------------2---------------2------|
|---6-----6--------5-------5-------3------3--------3-----3----|
|-----6-----6---------5-------5-------3------3-------3-----3-.|
|-4-------------3----------------1--------------1-------------|
 ooooooo For all that has been
|--------------------------------------------------------------|
|--------------------------------------------------------------|
|-------5---------------4--------------2---------------2-------|
|---6-----6--------5-------5-------3------3--------3-----3-----|
|-----6-----6---------5-------5-------3------3-------3-----3---|
|-4-------------3----------------1--------------1--------------|
                          And all that is
|--------------------------------------------------------------|
|--------------------------------------------------------------|
|-------5---------------4--------------2---------------2-------|
|---6-----6--------5-------5-------3------3--------3-----3-----|
|-----6-----6---------5-------5-------3------3-------3-----3---|
|-4-------------3----------------1--------------1--------------|
                          And all thats to be
|--------------------------------------------------------------|
|--------------------------------------------------------------|
|-------5---------------4--------------2---------------2-------|
|---6-----6--------5-------5-------3------3--------3-----3-----|
|-----6-----6---------5-------5-------3------3-------3-----3---|
|-4-------------3----------------1--------------1--------------|
   (lord im just killin time)
|--------------------------------------------------------------|
|--------------------------------------------------------------|
|-------5---------------4--------------2---------------2-------|
|---6-----6--------5-------5-------3------3--------3-----3-----|
|-----6-----6---------5-------5-------3------3-------3-----3---|
|-4-------------3----------------1--------------1--------------|
  And times killin' meee (Silence when doing this line)
|-----------------|------------------|
|--------4--------|---------1--------|
|---5-------5-----|---3--------3-----|
|------5--------5-|------3--------3--|
|-3---------------|-1----------------|
|-----------------|------------------|
                                4x's
|-----------------|------------------|
|--------4--------|---------1-------.|
|---5-------5-----|---3--------3-----|
|------5--------5-|------3--------3--|
|-3---------------|-1---------------.|
|-----------------|------------------|

End with C chord!
|------||
|----4-||
|---5--||
|--5---||
|-3----||
|------||

|---------------------3--6-----------|
|----------------4--6----------------|
|-----------3--5---------------------|
|------3--5--------------------------|
|-3--6-------------------------------|
|------------------------------------|

|--------------------------6--8-----------|
|---------------------6--8----------------|
|----------------5--8---------------------|
|-----------5--8--------------------------|
|------6--8-------------------------------|
|-6--8------------------------------------|

|-13--11------------------------------------------------------|
|---------13--11----------------------------------------------|
|----------------12--11--10-----------------------------------|
|---------------------------13--12--10------------------------|
|----------------------------------------13--12--10-----------|
|---------------------------------------------------11--10--8-|

|-----------------------------15--18-----------|
|----------------------16--18------------------|
|---------------15--17-------------------------|
|--------15--17--------------------------------|
|-15--18---------------------------------------|
|----------------------------------------------|

Bullet Inside Your Head

Dropped D

E----------------------------------------------------------------------------|
B----------------------------------------------------------------------------|
G----------------------------------------------------------------------------|
D----------------------------------------------------------------------------|
A--5-6-7--5------0-0-0-0-0---0-0---0-0-0-^----3-5-3--------5-6-7--3--0-------|
D--5-6-7--5-3~---0-0-0-0-0---0-0---0-0-0-3-5--3-5-3-5---5--5-6-7--3--0--3~~~-|

Solo

E--------------------------------------10-13-15-10-13-15----------------------|
B--------------------10-13-15-10-13-15-------------------10-13-15-10-13-15----|
G--10-12-13-10-12-13----------------------------------------------------------|
D-----------------------------------------------------------------------------|
A-----------------------------------------------------------------------------|
D-----------------------------------------------------------------------------|


E--------------------------------------10-13-15-10-13-15-------------|
B--------------------10-13-15-10-13-15-------------------10-13-15-\--|
G--10-12-13-10-12-13-------------------------------------------------|
D--------------------------------------------------------------------|
A--------------------------------------------------------------------|
D--------------------------------------------------------------------|

E-----------------------------------------------------------------|
B-13^13--13^13-13---13-13-^13---13-^13--13-10---------------------|
G---------------------------------------------12^12-12-10-12------|
D-----------------------------------------------------------------|
A-----------------------------------------------------------------|
D-----------------------------------------------------------------|

E-----------------------------------------------------------------|
B-----------------------------------12-12-12-10-------------------|
G--------10---------------10--------12-12-12-10-------------------|
D-----10----12~12------10----12~~---------------12----------------|
A--12--------------/12--------------------------------------------|
D-----------------------------------------------------------------|

E-----------------------------------------------------------------|
B--------12-------13-------12-------10-------12-------13-12~~~~---|
G-----------------------------------------------------------------|
D--10-12----12-13----13-12----12-10----10-12----12-13----12~~~~---|
A-----------------------------------------------------------------|
D-----------------------------------------------------------------|

E------------------------------------------------------12---------|
B-----10-15----10-15----10-15--/-/----10-15----10-15--------------|
G--13-------13-------13-------/-/--13-------13--------------------|
D-----------------------------------------------------------------|
A-----------------------------------------------------------------|
D-----------------------------------------------------------------|

E--13-10-12----13----10-----------------------------------------------------|
B-----------13----13----12-13-10-12----13----10----------13-----------------|
G-----------------------------------13----13----13-12-10----13-12-10-----12-|
D---------------------------------------------------------------------12----|
A---------------------------------------------------------------------------|
D---------------------------------------------------------------------------|

E-----------------------------------------------------------------|
B-----------------------------------------------------------------|
G--10-----------------2-5~------3-7~------5-9~-------7-10~--------|
D-----12-10-12------3---------5---------7----------9--------------|
A-----------------5---------7---------9---------10----------------|
D-----------------------------------------------------------------|

E-----------------------------------------------------------------|
B-----------------------------------------------------------------|
G--2-3-5-2-3-5-3-5-7-3-5-7---5-7-9-5-7-9-7-9-10-7-9-10------------|
D-----------------------------------------------------------------|
A-----------------------------------------------------------------|
D-----------------------------------------------------------------|

E------------------------------------------------------------------------|
B-----------------------------------10-11-13-10-11-13-11-10-15-11-13-15--|
G-9-10-12-9-10-12-10-12-14-10-12-14--------------------------------------|
D------------------------------------------------------------------------|
A------------------------------------------------------------------------|
D------------------------------------------------------------------------|

Stronger Than Death

Tuning: Dropped B - B A D G B E
E------------------------------------------------------------------------|
B------------------------------------------------------------------------|
G--8----------8-9-8---7-----------------/8-----------8-9-8----7----------|
D------------------------------------------------------------------------|
A--6----------6-7-6---5-----------------/6-----------6-7-6----5----------|
B--0---0--0---0~~~~---0------00--00----~~0---0--0----0~~~~----0----2--0--|
                                                                  ph

E-----------------------------------------------------------------|
B-----------------------------------------------------------------|
G-----------------------------------------------------------------|
D-----------------------------------------------------------------|
A-----------------------------------------------------------------|
B-6-5-3-0---6-5-3--00---6-5-0--0-3---0--3--0--6-5-3-0---6-5-3--00-| repeat
                                 ph     ph


E------------------------------------------------------------------|
B------------------------------------------------------------------|
G------------------------------------------------------------------|
D------------------------------------------------------------------|
A------------------------------------------------------------------|
B--3-5-3-5-3-5-3-5-3-3-3-5-3-5-3-3-3-5-3-3-3-5-3-3-3-5-------------|
  |~~~~~~~~~~~~~~~~~~~~pinch harmonics~~~~~~~~~~~~~~~|


E-----------------------------------------------------------------|
B-----------------------------------------------------------------|
G-----------------------------------------------------------------|
D-----------------------------------------------------------------|
A-----------------------------------------------------------------|
B-0-0-0--0-0-0--0-0-0----3^5-5---0-0-0--0-0-0--0-0-0--6-5---------|
                       ^=hammer on


Solo
  |~~~~~~~~~~trill~~~~~~~~~|
E---------|---------|--------|-----------------------------------------|
B---------|---------|--------|-----------------------------------------|
G--9--11--|--8--10--|--7--9--|--4--9-9-9-9-7--------repeat trill-------|
D---------|---------|--------|---------------9-7~----------------------|
A---------|---------|--------|-----------------------------------------|
B---------|---------|--------|-----------------------------------------|


E-----------14-12-9-14-12-9-12-11-9-12-11-9-----------------------|
B-------------------------------------------12-11-9-12-11-9-------|
G--4~-------------------------------------------------------------|
D-----------------------------------------------------------------|
A-----------------------------------------------------------------|
B------3-3--------------------------------------------------------|


E-------------------14-12-9-14-12-9----------------------------9--|
B------------------------------------12-11-9-12-11-9---11~~-------|
G--12-11-9-12-11-9------------------------------------------------|
D-----------------------------------------------------------------|
A-----------------------------------------------------------------|
B-----------------------------------------------------------------|


E--14-12-9-14-12-9-12-11-9-12-11-9----------------------------------|
B----------------------------------12-11-9-12-11-9------------------|
G---------------------------------------------------12-11-9-12-11-9-|
D-------------------------------------------------------------------|
A-------------------------------------------------------------------|
B-------------------------------------------------------------------|


E--14-12-9-14-12-9-12-11-9-12-11-9--12~~--------------------------------|
B-----------------------------------------------------------------------|
G----------------------------------------4-6-9-6-9-11-9-11-13-11--13~~--|
D-----------------------------------------------------------------------|
A-----------------------------------------------------------------------|
B-----------------------------------------------------------------------|

E-------------------------------------------------------------------------|
B-21-21~~-----------------------------------------------------------------|
G---------17-17-5-5-5-5-5--15-15--3-3-15-15-3-3-3-3-15-15-3-3-15-15-3-3---|
D-------------------------------------------------------------------------|
A-------------------------------------------------------------------------|
B-------------------------------------------------------------------------|

Love Reign Down

Dropped A

E-----------------------------------------------------------------------------|
B-----------------------------------------------------------------------------|
G-----------------------------------------------------------------------------|
D-----------------------------------------------------------------------------|
A-----------------------------------------------------------------------------|
A-10-12-10-12-17-17-15-17-15-14--0-6-5-3--0--0--3~-4-5-6--0-5-6-5-0-----------|


E------------------------------------------------12--17-15-12----12-----------|
B----------------------------20~~~----20-20---15--------------15------/-/-----|
G--19~X-/-19~X--/19~X--19~~-----------20-20--------------------------/-/------|
D-----------------------------------------------------------------------------|
A-----------------------------------------------------------------------------|
A-----------------------------------------------------------------------------|

E-17-15-12--------------------------------------------------------------------|
B-------------12-17-15-12----------------15-12----12-17-15-12-----------------|
G----------15----------------12-15-14-12-------15-----------------------------|
D-------------------------14--------------------------------------------------|
A-----------------------------------------------------------------------------|
A-----------------------------------------------------------------------------|

E--15-12----12-17-15-12-------------------------------------------------------|
B--------15-------------15-12----12-17----------------------------------------|
G-----------------------------15--------^15--15~------------------------------|
D-----------------------------------------------------------------------------|
A-----------------------------------------------------------------------------|
A-----------------------------------------------------------------------------|

  repeat
E----------|------------------------------------------------------------------|
B--/21-21--|------------------------------------------------------------------|
G--/21-21-:|------------------------------------------------------------------|
D---------:|---------------------------------------14-15-16-14-15-16----------|
A----------|---------------------14-15-16-14-15-16----------------------------|
A----------|---14-15-16-14-15-16----------------------------------------------|

E-----------------------------------------------------------------------------|
B-----------------------------------------------------------------------------|
G--14-15-16-14-15-16---------------------------------------14-16-17-14-16-17--|
D---------------------------------------14-15-16-14-15-16---------------------|
A---------------------14-15-16-14-15-16---------------------------------------|
A-----------------------------------------------------------------------------|


E-----------------------------------------------------------------------------|
B--14-16-17-14-16-17---------------------------------------14-16-17-14-16-17--|
G---------------------------------------14-16-17-14-16-17---------------------|
D---------------------14-15-16-14-15-16---------------------------------------|
A-----------------------------------------------------------------------------|
A-----------------------------------------------------------------------------|


E--14-16-17-14-16-17----/17----17----17~~~~-----------------------------------|
B-----------------------------------------------------------------------------|
G-----------------------------------------------------------------------------|
D-----------------------------------------------------------------------------|
A-----------------------------------------------------------------------------|
A-----------------------------------------------------------------------------|

            
            
Suggest correction
Creating personal tab
Creating personal tab
You can edit any tab online and save it as your Personal.

You can edit, replace or remove any tab part or add personal notes – all changes will be seen only by you.

Personal tabs can be accessed anytime from any device, even offline.
Learn more »
Give kudos to tab author, rate the tab!
1 2 3 4 5
comments
print report bad tab
2 comments total.
0 reply
fLYinGV23 122 Apr 14, 2009 06:04 PM

Hahaha, you just copied and pasted all these tabs and put them together, oh well, gj

0 reply
Iheartnirvana 668 Apr 15, 2009 06:43 AM

that's kinda the point of how to make an album tab, lol, thatnks anyways.

guest
You may want to rate the tab now too:
select rating
Wanna post a correction for this tab? Suggest correction