Oops, an error
Loading. Please wait.

Am I Only tab

12,021 views 6 this week
no commentswrite comment
1 2 3 4 5
x 6
add to favorites
×
Save as Personal and add changes to this tab that will be seen only by you. Learn more ›
×
You can save this tab as Personal to edit and correct it or add notes. All changes will be seen only by you. Learn more »
launch autoscroll
font size
0
reset
how to read this tab
guitar tuner
edit
Autoscroll
slow
fast
+/-
esc
set tempo
stop
Black Rebel Motorcycle Club - Am I Only
---------------------------------------

OPEN E !!! 

Nothing seems to show
The feelings come and go
And everything’s so strange
The people never change

Am I only, only one of you
Am I only, only one of you

Emotions never known
They talk though what you show
So easy you let go
What’s left is torn and thrown

Am I only, only one of you
Am I only, only one of you


  E|------0-----------------|
  B|------0-----------------|
  E|------0-----------------|
  D|------9-----------------|
 G#|------8-----------------|
  E|------0-----------------|

  E|------0-----------------|
  B|------0-----------------|
  E|------0-----------------|
  D|------2-----------------|
 G#|------3-----------------|
  E|------0-----------------|

  E|------0-----------------|
  B|------0-----------------|
  E|------x-----------------|
  D|------1-----------------|
 G#|------0-----------------|
  E|------------------------|

Bridge

  E|------0-----------------|
  B|------0-----------------|
  E|------7-----------------|
  D|------9-----------------|
 G#|------8-----------------|
  E|------0-----------------|

  E|------0-----------------|
  B|------0-----------------|
  E|------8-----------------|
  D|------10----------------|
 G#|------0-----------------|
  E|------------------------|

  E|------0-----------------|
  B|------0-----------------|
  E|------11----------------|
  D|------13----------------|
 G#|------0-----------------|
  E|------------------------|

You turn into a song
And everything feels wrong
There’s so much more to see
But lost is meant to be

Am I only, only one of you
Am I the lonely, only one of you

################
Added by Woytas#
################

            
            
Suggest correction
Creating personal tab
Creating personal tab
You can edit any tab online and save it as your Personal.

You can edit, replace or remove any tab part or add personal notes – all changes will be seen only by you.

Personal tabs can be accessed anytime from any device, even offline.
Learn more »
comments
print report bad tab
guest
Wanna post a correction for this tab? Suggest correction