Oops, an error
Loading. Please wait.

Rifles bass

version 2
version 2

Whole song

2,199 views 6 this week
no commentswrite comment
1 2 3 4 5
2 more votes to show rating
add to favorites
×
Save as Personal and add changes to this tab that will be seen only by you. Learn more ›
×
You can save this tab as Personal to edit and correct it or add notes. All changes will be seen only by you. Learn more »
launch autoscroll
font size
0
reset
guitar tuner
edit
Autoscroll
slow
fast
+/-
esc
set tempo
stop
Author
Sup

This is the basic tab for the song, including song structure and timestamps. If I've 
a fill then just keep in mind I was in a hurry.

Notes marked with an asterisk above them may be played at a higher octave.
Notes with a number in brackets alongside tell you how many times to play that note.

Main Riff/Verse (1:30 onwards):

G|------------------------------------|
D|------------------------------------|
A|--*-*-10--10-10---------------------|
E|--0-0------------10--10-10h12-12----|

Bridge (2:08)

G|--------------|
D|--------------|
A|-------3(8)---|
E|--5(8)--------|

Verse
Bridge
Verse

Chorus ("I see no colour in your eyes...")(2:42)

G|------------------------------------|
D|------------------------------------|
A|----------3-3-3-3-------------------|
E|--0-0-0-0---------5-5-5-5-5-5-5-5---|

Verse
Bridge
Verse
Chorus

Middle Eight (4:04)

G|------------------------------------|
D|------------------------------------|
A|------------5(8)--------------5-7---|
E|--1(8)-5(8)------5-5-5-55-7-8-------|

G|-------------------------------------|-------|
D|-------------------------------------|-------|
A|------------5(8)---------------5-----|-------|
E|--1(8)-5(8)------5---3-----5---------|--0~---|

Interlude (no bass)

Bass solo (4:39)

(Will tab the solo soon as a correction, sorry guys but I'm short of time atm) In the 
this is the second bass part that serves as a backing for the solo:

G|---------------|
D|---------------|
A|---------------|
E|--0(8)-12(8)---|

(4:57 onwards)

G|-------------------|    |-------------------|
D|-------------------|    |-------------------|
A|-------------------| x2 |-------------------| x2
E|--0-0-7-76-5-0-3---|    |--0-0-7-76-5-0-5---|

Verse
Bridge
Verse
Chorus
Middle Eight (End on the A)

Have a good trip

            
            
Suggest correction
Creating personal tab
Creating personal tab
You can edit any tab online and save it as your Personal.

You can edit, replace or remove any tab part or add personal notes – all changes will be seen only by you.

Personal tabs can be accessed anytime from any device, even offline.
Learn more »
Give kudos to tab author, rate the tab!
1 2 3 4 5
comments
print report bad tab
guest
You may want to rate the tab now too:
select rating
Wanna post a correction for this tab? Suggest correction