Oops, an error
Loading. Please wait.

Cornucopia bass

version 1
version 1

Whole song

Interactive

349 views 27 this week
no commentswrite comment
1 2 3 4 5
1 last vote to show rating
add to favorites
×
Save as Personal and add changes to this tab that will be seen only by you. Learn more ›
×
You can save this tab as Personal to edit and correct it or add notes. All changes will be seen only by you. Learn more »
launch autoscroll
font size
0
reset
guitar tuner
edit
Autoscroll
slow
fast
+/-
esc
set tempo
stop
 Song: Cornucopia
 Band: Black Sabbath
 Album: Vol. 4
 Bassist: Geezer Butler
 Composer: Iommi, Butler, Osbourn
 Tabbed by: FLBatista
 Tunning: 2,5 step down (C# F# B E)

INTRO:

E |-------------------------------|x4
B |-------------------------------|
F#|---------------/8v-8p7-7h8-----|
C#|-0~--7p6-7p6-7-------------6h7-|

E |-------------------|
B |-------------------|
F#|-7h8-----7h8-------|
C#|-----6h7-----6h7~--|


MAIN RIFF 1:

E |----9-9---9-9-9777-----------|
B |-789---789-------------------|
F#|------------------5-5-5-5--7-|
C#|-----------------------------|

E |----9-9---9-9---9-----------|
B |-789---789---789------------|
F#|-----------------5-5-5-5--7-|
C#|----------------------------|

VERSE 1 ("Too much in the truth they say..."):

E |----9-9---9-9---9-----------|x3
B |-789---789---7h9------------|
F#|-----------------5-5-5-5--7-|
C#|----------------------------|

E |----9-9---9-9---9---------|
B |-789---789---7h9----------|
F#|-----------------5-5-5-5--|
C#|--------------------------|


BRIDGE 1:

C#|----------/6-6666-|
F#|------------------|
B |-5-5-5-5-4--------|
E |------------------|

RIFF 1:

C#|-----------------------------------|
F#|------4-5------------4-5-----------|
B |-7--7-----7--7--7--7-----5--5-5--5-|
E |-----------------------------------|

C#|----------------------------|
F#|------4-5------------4-5----|
B |-7--7-----7--7--7--7-----5--|
E |----------------------------|

MAIN RIFF 2:

C#|----9-9---9-9---9------------|
F#|-789---789---7h9-------------|
B |------------------5-5-5-5--7-|
E |-----------------------------|x2


VERSE 2 ("Let them have their little toys..."):

C#|----9-9---9-9---9------------|
F#|-789---789---7h9-------------|
B |------------------5-5-5-5--7-|
E |-----------------------------|x3

C#|----9-9---9-9---9---------|
F#|-789---789---7h9----------|
B |------------------5-5-5-5-|
E |--------------------------|


VERSE 3 ("You're gonna go insane..."):

E |---------------------|
B |---------------------|
F#|-5---------------/-\-|
C#|----5--5h7-7-7-7-----|x4


BRIDGE 2:

E |----------------------------|
B |----------------------------|
F#|-7h8-----7h8------7h8-------|
C#|-----6h7-----6h7-------6h7--|


RIFF 2:

E |---------------5h7~---/7-5-------|
B |------5h7p5~---------------7--5--|
F#|---------------------------------|
C#|-5~------------------------------|x3

RIFF 3:

E |--------------------------------|
B |--------------------------------|
F#|--------------------------7---7-|
C#|-03035--53--5--53--55-53--------|x2


RIFF 4:

E |----------------------------|
B |----------------------------|
F#|-----------------5b(6)-5-3--|
C#|-03035-5-5-5-3-0------------|

E |------------------------|
B |------------------------|
F#|-------------5b(6)-5-3--|
C#|-5-5-5-5-3-0------------|


VERSE 4 ("I don't know what's happening...")

E |------------------------|
B |------------------------|
F#|-------------5b(6)-5-3--|
C#|-5-5-5-5-3-0------------|x4


PLAY:
RIFF 3
VERSE 3 (change x4 for x2)
BRIDGE 2
MAIN RIFF 1
VERSE 1 ("Take a life, it's going cheap...")
VERSE 3 ("You're gonna go insane...")
BRIDGE 2


SUBTITLE:

 / : Slide Up
 \ : Slide Down
 h : Hammer On
 p : Pull Off
 ~ : Let Ring
 v : Vibrato
 b(x) : Bend to x

            
            
Suggest correction
Creating personal tab
Creating personal tab
You can edit any tab online and save it as your Personal.

You can edit, replace or remove any tab part or add personal notes – all changes will be seen only by you.

Personal tabs can be accessed anytime from any device, even offline.
Learn more »
Give kudos to tab author, rate the tab!
1 2 3 4 5
comments
print report bad tab
guest
You may want to rate the tab now too:
select rating
Wanna post a correction for this tab? Suggest correction