Oops, an error
Loading. Please wait.
We have an official Into The Void tab made by UG professional guitarists. Check out the tab »
×
31,582 views 48 this week
2 commentsread comments
1 2 3 4 5
x 14
add to favorites
×
Save as Personal and add changes to this tab that will be seen only by you. Learn more ›
×
You can save this tab as Personal to edit and correct it or add notes. All changes will be seen only by you. Learn more »
launch autoscroll
font size
0
reset
guitar tuner
backing track
0:00
0:00
edit
Autoscroll
slow
fast
+/-
esc
set tempo
stop
Black Sabbath
Into the Void
bass tab

  0.10         intro             t:115                             4:4
|----------------|----------------|----6-----6-----|6-----6---6-----|
|----------------|-------^--5^----|4--.--4--.--4--.|--4-----6-------|
|4---------4-=---|3-----2-0-------|----------------|------------7^--|
|--0-2-3-4-----4-|----4-----------|----------------|----------------|

|----------6-=---|5-----4---------|----6-----6-----|6-----6---6-----|
|--2-4-5-6-----6-|----6-----5^----|4--.--4--.--4--.|--4-----6-------|
|4---------------|----------------|----------------|------------7^--|
|----------------|----------------|----------------|----------------|

|----------------|----------------|----------------|----------------|
|-----------11=--|10----9---------|----11----11----|11----11--11----|
|--7-9-10-11---11|----11----10^---|9--.--9-----9---|--9-----11------|
|9---------------|----------------|----------------|------------12\-|

  0.38
|----------------|----------------|----------------|----------------|
|----------------|-------11-10-9^-|----------------|--------2-4-5-6-|
|----------------|----------------|----------------|------4---------|
|9-=-9-9-9-9-=-7-|=-7-7-.---------|9-=-9-9-9-9-=-7-\--2-0-----------|

|----------------|--------6-5-4---|----------------|----------------|
|----------------|----------------|----------------|----------------|
|4-=-4-4-4-4-=-2-|=-0-2-0---------|0-0-0-0-0-2-=---|----------------|
|----------------|----------------|--------------4--------------4\3-|

  0.55
|----------------|----------------|----6-----6-----|6-----6---6-----|
|----------------|----------5^----|4-----4-----4---|--4-----6-------|
|4---------4-=---|3-----2-0-------|----------------|------------7^--|
|--0-2-3-4-----4-|----4-----------|----------------|----------------|

|----------6-=---|5-----4---------|----6-----6-----|6-----6---6-----|
|----4-5-6-----6-|----6---.-5^----|4-----4-----4---|--4-----6-------|
|4-7-------------|----------------|----------------|------------7^--|
|----------------|----------------|----------------|----------------|

  1.14          t:///160
|----------------|----------------|----------------|----------------|
|----------------|----------------|----------------|--------
|4-=-------------|----------------|--------
|----------------|--------
                                           --------|----------------|
                          --------|----------------|----------------|
         --------|----------------|----------------|--------`---`---|
|----------------|----------------|----------------|----------`-----|

  1.27         theme 1
|----------------|----------------|----------------|----------------|
|----------------|----------------|----------------|----------------|
|-------------^--|----------------|-^-----------^--|-----^--9^^-----|
|9---9-9-9-9-7-9-|9-9-9-9-7---=---|7-9-9-9-9-9-7-9-|9-9-7-0---------|

|----------------|----------------|----------------|----------------|
|----------------|----------------|----------------|----------------|
|-^-----------^--|----------------|-^-----------^--|-----^--9^^-----|
|7-9-9-9-9-9-7-9-|9-9-9-9-7-7-7---|7-9-9-9-9-9-7-9-|9-9-7-0---------|

  1.40         verse 1
|----------------|----------------|----------------|----------------|
|----------------|----------------|----------------|----------------|
|-^-----------^--|---^------------|-^-----------^--|---^----9^^-----|
|7-9-9-9-9-9-7-9-|9-0-9^--7-^^----|7-9-9-9-9-9-7-9-|9-0-7-=---------|

|----------------|----------------|----------------|----------------|
|----------------|----------------|----------------|----------------|
|-^-----------^--|---^------------|-^-----------^--|---^----9^^-----|
|7-9-9-9-9-9-7-9-|9-0-9---7-.7^---|7-9-9-9-9-9-7-9-|9-0-7-=---------|

|----------------|----------------|----------------|----------------|
|----------------|----------------|----------------|----------------|
|-^-----------^--|---^------------|-^-----------^--|---^-^--9^^-----|
|7-9-9-9-9-9-7-9-|9-0-9---7-^^----|7-9-9-9-9-9-7-9-|9-0-7-0---------|

|----------------|----------------|----------------|----------------|
|----------------|----------------|----------------|----------------|
|-^-----------^--|---^------------|-^-----------^--|---^----9^^-----|
|7-9-9-9-9-9-7-9-|9-0-9-.-7-^^----|7-9-9-9-9-9-7-9-|9-0-7-.---------|

  2.05          riff 1
|----------------|----------------|----------------|----------------|
|11^---10^---9^-------------------|----------------|----------------|
|----------------|--11^---10^-9^--|-^-----------^--|----------------|
|----------------|----------------|7-9-9-9-9-9-7-9-|9-9-9-9-7-\\----|

|----------------|----------------|
|11^---10^---9^-------------------|
|----------------|--11^---10^-9^--|
|----------------|----------------|
    2.14         theme 2
|----------------|----------------|----------------|----------------|
|----------------|----------------|----------------|----------------|
|-^-----------^--|----------------|-^-----------^--|---^----9^^-----|
|7-9-9-9-9-9-7-9-|9-9-9-9-7-7-----|7-9-9-9-9-9-7-9-|9-0-7^^---------|

|----------------|--------`-`-`---|--------`-------|--`-----`-------|
|----------------|----------------|----------------|----------------|
|-^-----------^--|----------------|-^-----------^--|--------9^^-----|
|7-9-9-9-9-9-7-9-|9-9-9-9-7-7-7---|7-9-9-9-9-9-7-9-|9-0-7-0---------|

  2.27         verse 2
|----------------|----------------|----------------|----------------|
|----------------|----------------|----------------|----------------|
|-^-----------^--|---^------------|-^-----------^--|---^----9^^-----|
|7-9-9-9-9-9-7-9-|9-0-9^--7-^^----|7-9-9-9-9-9-7-9-|9-0-7-=---------|

|----------------|----------------|----------------|----------------|
|----------------|----------------|----------------|----------------|
|-^-----------^--|---^------------|-^-----------^--|---^----9^^-----|
|7-9-9-9-9-9-7-9-|9-0-9---7-7-----|7-9-9-9-9-9-7-9-|9-0-7-=---------|

|----------------|----------------|----------------|----------------|
|----------------|----------------|----------------|----------------|
|-^-----------^--|---^------------|-^-----------^--|---^-^--9^^-----|
|7-9-9-9-9-9-7-9-|9-0-9---7-^^----|7-9-9-9-9-9-7-9-|9-0-7-0---------|

|----------------|----------------|----------------|----------------|
|----------------|----------------|----------------|----------------|
|-^-----------^--|---^------------|-^-----------^--|---^----9^^-----|
|7-9-9-9-9-9-7-9-|9-0-9-.-7-^^----|7-9-9-9-9-9-7-9-|9-0-7-.---------|

  2.52          riff 2
|----------------|----------------|----------------|----------------|
|11^---10^---9^-------------------|----------------|----------------|
|----------------|--11^---10^-9^--|-------------^--|----------------|
|----------------|----------------|9---9-9-9-9-7-9-|9-9-9-9-7-\\----|

|----------------|----------------|----------------|----------------|
|11^---10^---9^-------------------|----------------|------------
|----------------|--11^---10^-9^--|----------------|--------
|----------------|----------------|9---------------|----   t:...//180

  3.04         bridge            t:170            -3-
|----------------|----------------|----------------|----------------|
|----------------|----------------|----------------|----------------|
|----------------|----------------|----7-9^--9-7---|----7-9^--9-7---|
|----------------|----------------|9-------------9-|9-------------9-|

|----------------|----------------|----------------|----------------|
|----------------|----------------|----------------|----------------| x
|----7-9^--9-7---|----7-9^--9-7---|----7-9^--9-7---|----7-9^--9-7---| 2
|9-------------9-|9-------------9-|9-------------9-|9-------------9-|

|----------------|----------------|----------------|
|11-10-9---------|----------------|11-10-9---------|
|--------11-10-9-|----7-9^--9-7---|--------11-10-9-|  t:160
|----------------|9-------------9-|----------------|

  3.33
|----------------|----------------|----------------|----------------|
|----------------|----------------|----------------|--------
|----------------|----------------|--------
|----------------|--------
                                           --------|--------`-`-`---|
                          --------|----------------|--`-`-`---------|
         --------|----------------|----------------|--------9^^-----|
|----------------|----------------|----------------|----------------|

  3.46         theme 3
|----------------|----------------|----------------|----------------|
|----------------|----------------|----------------|----------------|
|-^-----------^--|----------------|-------------^--|--------9^^-----|
|7-9-9-9-9-9-7-9-|9-9-9-9-7-=-----|9---9-9-9-9-7-9-|9-0-9-0---------|

|----------------|----------------|----------------|----------------|
|----------------|----------------|----------------|----------------|
|-^-----------^--|----------------|-------------^--|--------9^^-----|
|7-9-9-9-9-9-7-9-|9-9-9-9-7-7---=-|9---9-9-9-9-7-9-|9-0-7-0---------|




    3.59         verse 3
|----------------|----------------|----------------|----------------|
|----------------|----------------|----------------|----------------|
|-^-----------^--|----^-----------|-^-----------^--|--------9^^-----|
|7-9-9-9-9-9-7-9-|9--79---7-----=-|7-9-9-9-9-9-7-9-|9-0-7-0---------|

|----------------|----------------|----------------|----------------|
|----------------|----------------|----------------|----------------|
|-^-----------^--|----^---^-------|-------------^--|--------9^^-----|
|7-9-9-9-9-9-7-9-|9--79--.7-----=-|9---9-9-9-9-7-9-|9-0-7-0---------|

|----------------|----------------|----------------|----------------|
|----------------|----------------|----------------|----------------|
|-^-----------^--|----------------|-------------^--|--------9^^-----|
|7-9-9-9-9-9-7-9-|9-.-9-9-7-7---=-|9---9-9-9-9-7-9-|9-0-7-0---------|

|----------------|----------------|----------------|----------------|
|----------------|----------------|----------------|----------------|
|-^-----------^--|----------------|-------------^--|--------9^^-----|
|7-9-9-9-9-9-7-9-|9--99---7-----=-|9---9-9-9-9-7-9-|9-0-7^----------|

  4.24          riff 3
|----------------|----------------|----------------|----------------|
|11^---10^---9^-------------------|----------------|----------------|
|----------------|--11^---10^-9^--|-^-----------^--|----------------|
|----------------|----------------|7-9-9-9-9-9-7-9-|9-9-9-9-7-\\----|

|----------------|----------------|
|11^---10^---9^-------------------|
|----------------|--11^---10^-9^--|
|----------------|----------------|

  4.33         theme 4
|----------------|----------------|----------------|----------------|
|----------------|----------------|----------------|----------------|
|-^-----------^--|----------------|-^-----------^--|---^----9^^-----|
|7-9-9-9-9-9-7-9-|9-9-9-9-7-7-----|7-9-9-9-9-9-7-9-|9-0-7^^---------|

|----------------|----------------|----------------|----`---`-`-`---|
|----------------|----------------|----------------|----------------|
|-^-----------^--|----------------|-^-----------^--|--------9^^-----|
|7-9-9-9-9-9-7-9-|9-9-9-9-7-------|7-9-9-9-9-9-7-9-|9-0-7-0---------|


  4.46         solo
|----------------|----------------|----------------|----------------|
|----------------|----------------|----------------|----------------|
|----------------|7---------------|-^-------^------|-^------9^^-----|
|9---9-9-9-9-9---|--9---0-7---7---|7-9-9-.-7-9-7---|7-9-9-0---------|

|----------------|----------------|----------------|----------------|
|----------------|----------------|----------------|----------------|
|-----^---^------|-^-------^------|-^-------^------|-^------9^^-----|
|9---9-0-7-9-7---|7-9-----9-7-----|7-9-9-9-7-9-7---|7-9^^-0---------|

|----------------|----------------|----------------|----------------|
|----------------|----------------|----------------|----------------|
|---------^------|-^-----^--------|-^-------^------|-^------9^^-----|
|9---9-9-7-9-7---|7-9---9-7-------|7-9-9-9-7-9-7---|7-9---0---------|

  5.04
|----------------|----------------|
|----------------|--------2-------| x
|4-3-2-----------|2---3-4---4-----| 4
|------4-^^------|----------------|

  5.16
|----------------|----------------|
|----------------|----------------| x
|4-----4-4-------|----------------| 8
|----------------|----------------|

  5.39
|----------------|----------------|
|----------------|--------2-------| x
|4-3-2-----------|2---3-4---4-----| 6
|------4-^^------|----------------|

  5.57         outro
|----------------|----------------|
|----------------|--------2-------| x
|4-3-2-----------|2---3-4---4-----| 4
|------4-^^------|----------------|
  



standard tuning (EADG)

| /  slide up
| \  slide down

| .   incidental note (usually open string)
| ^   pre-struck note (hammer-on, pull-off)
| =   rest

| X   10
| E   11
| T   12


display in fixed-width font
one space ("-") = 1/16 note

tabbed by
spaceyhippie
dudeman.net/jam


            
            
Suggest correction
Creating personal tab
Creating personal tab
You can edit any tab online and save it as your Personal.

You can edit, replace or remove any tab part or add personal notes – all changes will be seen only by you.

Personal tabs can be accessed anytime from any device, even offline.
Learn more »
comments
print report bad tab
2 comments total.
+2 reply
bassm29 10 Dec 27, 2011 02:32 PM

tab was really well done, but like guitar the whole albums in drop C

+3 reply
akarith 103 Jan 07, 2012 08:06 AM

even though it is played/written in drop C, GZR never uses an open string so I can be playing in standard tuning on bass (like the tab is written). Personally, I like it better in standard.

Very good tab, 5/5

guest
You may want to rate the tab now too:
select rating
Wanna post a correction for this tab? Suggest correction