Oops, an error
Loading. Please wait.
We have an official Solitude tab made by UG professional guitarists. Check out the tab »
×
3,214 views 87 this week
no commentswrite comment
1 2 3 4 5
x 7
add to favorites
×
Save as Personal and add changes to this tab that will be seen only by you. Learn more ›
×
You can save this tab as Personal to edit and correct it or add notes. All changes will be seen only by you. Learn more »
launch autoscroll
font size
0
reset
transpose
0
reset
display chords
guitar tuner
backing track
0:00
0:00
edit
Autoscroll
slow
fast
+/-
esc
set tempo
stop
Author
Strumming
There is no strumming pattern for this song yet. and get +5 IQ
Standard Tuning EADGBe 

Tab portion courtesy of Version 2. 

The whole song is   Gm    F   over and over


Main riff: 

e|--------------------------------------------------------------|
B|-------3-----------------3-----------3-----------------3------|
G|-----3---5-2h3p2-------3---5-------3---5-2h3p2-------3---5----|
D|-5---------------3-5-----------5---------------3-5------------|
A|--------------------------------------------------------------|
E|--------------------------------------------------------------|


e|-5h6p5---5-5----5h6p5---5-5----------------------------------------|
B|-------6--------------6--------------3-----------------3-----------|
G|-----------------------------------3---5-2h3p2-------3---5-2h3p2---|
D|-------------------------------5---------------3-5---------------3-|
A|-------------------------------------------------------------------|
E|-------------------------------------------------------------------|

Gm   F
Gm   F


[Verse 1]

   Gm            F           Gm         F     Gm    F    Gm    F
My name it means nothing, my fortune is less
   Gm           F        Gm         F     Gm    F    Gm    F
My future is shrouded in dark wilderness
Gm          F         Gm            F    Gm    F    Gm    F
Sunshine is far away, clouds linger on
Gm         F            Gm           F      Gm       F      Gm       F
Everything I possessed, now they are gone...they are gone...they are gone


[Verse 2]

   Gm          F         Gm         F      Gm    F    Gm    F
Oh where can I go to and what can I do?
Gm          F               Gm              F     Gm    F    Gm    F
Nothing can please me, only thoughts are of you
Gm       F              Gm            F     Gm    F    Gm    F
You just laughed when I begged you to stay
Gm               F            Gm       F       Gm      F      Gm       F
I've not stopped crying since you went away...you went away...you went away


[solo break] (solo at the bottom)


[Verse 3]

    Gm         F             Gm             F     Gm    F    Gm    F
The world is a lonely place, you're on your own
      Gm        F     Gm           F      Gm    F    Gm    F
Guess I will go home, sit down and moan
Gm         F           Gm         F    Gm    F    Gm    F
Crying and thinking is all that I do 
Gm       F         Gm     F   Gm   F   Gm   F     Gm
Memories I have remind me of you...of you...of you



(end) 



[solo break] (between V2 & V3) 


e|--------------------------------------------------------------|
B|--------------------------------------------------------------|
G|-----232--------------5-2---------232--------------5-2--------|
D|-5-------3-3\-----3-5----/5---5-------3-3\-----3-5----/5------|
A|--------------3-5--------------------------3-5----------------|
E|--------------------------------------------------------------|

e|---------------------------------------------------------------|
B|---------------------------------------------------------------|
G|-2/3-2-----3-2-----------3\2--------232--------------5-2-------|
D|-------5-------5---3-3-5-----5---5------3-3\-----3-5----/5-----|
A|---------------------------------------------3-5---------------|
E|---------------------------------------------------------------|



************************************

| h  Hammer-on
| p  Pull-off
| /  Slide up
| \  Slide down

************************************

            
            
Suggest correction
Creating personal tab
Creating personal tab
You can edit any tab online and save it as your Personal.

You can edit, replace or remove any tab part or add personal notes – all changes will be seen only by you.

Personal tabs can be accessed anytime from any device, even offline.
Learn more »
comments
print report bad tab
guest
You may want to rate the tab now too:
select rating
Wanna post a correction for this tab? Suggest correction