Oops, an error
Loading. Please wait.

Lonely Train bass

version 2
version 2

Whole song

Interactive

2,341 views 6 this week
no commentswrite comment
1 2 3 4 5
1 last vote to show rating
add to favorites
×
Save as Personal and add changes to this tab that will be seen only by you. Learn more ›
×
You can save this tab as Personal to edit and correct it or add notes. All changes will be seen only by you. Learn more »
launch autoscroll
font size
0
reset
guitar tuner
edit
Autoscroll
slow
fast
+/-
esc
set tempo
stop
w - whole note
h - half note
q - quarter note
e - eighth note
s - sixteenth note
. - dotted note
r - eighth rest
x - sixteenth rest
: - repeat
()- tied note
/ - slide up the fretboard
\ - slide down the fretboard


Guitar plays main riff 3x + 1 measure of rest

   Intro
F |---------------------------------|---------------------------------|
C |:--------------------------------|--------------------------------:|
G |:--------------------------------|--------------------------------:|
C |-3-0-0-0-5-0-0-0-----3-0-5-0-3-0-|-5-4-3-0-5-4-3-0-----------------|
    s s s s s s s s r   s s s s s s   s s s s s s s s r   r   r   r

   Verse*                                                           4x
F |---------------------------------|---------------------------------|
C |:--------------------------------|--------------------------------:|
G |:--------------------------------|--------------------------------:|
C |-0-------0-------0-------0-------|-0-------0-------0-------0-------|
    e   r   e   r   e   r   e   r     e   r   e   r   e   r   e   r

F |---------------------------------|---------------------------------|
C |---------------------------------|---------------------------------|
G |---------------------------------|---------------------------------|
C |-0-------3-----------0-------0---|-0-------3-----------0-------0---|
    q       e   r   r   e   r   e     q       e   r   r   e   r   e


F |---------------------------------|---------------------------------|
C |---------------------------------|---------------------------------|
G |---------------------------------|---------------------------------|
C |-0-------3-----------0-------0---|-5-4-3-0-5-4-3-0-5-4-3-0-5-4-3-0-|
    q       e   r   r   e   r   e     s s s s s s s s s s s s s s s s


F |---------------------------------|---------------------------------|
C |---------------------------------|---------------------------------|
G |---------------------------------|---------------------------------|
C |-0-------3-----------0-------0---|-0-------3-----------0-------0---|
    q       e   r   r   e   r   e     q       e   r   r   e   r   e


F |---------------------------------|---------------------------------|
C |---------------------------------|---------------------------------|
G |---------------------------------|---------------------------------|
C |-0-------3-----------0-------0---|-5-4-3-0-5-4-3-0-3-3-----3-3---0-|
    q       e   r   r   e   r   e     s s s s s s s s s s r   s s r e

   Chorus
F |---------------------------------|---------------------------------|
C |---------------------------------|---------------------------------|
G |---------------------------------|---------------------------------|
C |(0)--0---0---0---0---0---0---0---|-3---3---3---3---3---3---3---3---|
   (e)  e   e   e   e   e   e   e     e   e   e   e   e   e   e   e


F |---------------------------------|---------------------------------|
C |---------------------------------|---------------------------------|
G |---------------------------------|---------------------------------|
C |-5---5---5---5---5---5---5---5---|-8---8---8---8---8---8---8---8---|
    e   e   e   e   e   e   e   e     e   e   e   e   e   e   e   e

F |---------------------------------|---------------------------------|
C |---------------------------------|---------------------------------|
G |---------------------------------|---------------------------------|
C |-0---0---0---0---0---0---0---0---|-3---3---3---3---3---3---3---3---|
    e   e   e   e   e   e   e   e     e   e   e   e   e   e   e   e


F |---------------------------------|---------------------------------|
C |---------------------------------|---------------------------------|
G |---------------------------------|---------------------------------|
C |-5---5---5---5---5---5---5---5---|-8---8---8---8---8---8---12\-----|
    e   e   e   e   e   e   e   e     e   e   e   e   e   e   q

   Verse                                                            4x
F |---------------------------------|---------------------------------|
C |:--------------------------------|--------------------------------:|
G |:--------------------------------|--------------------------------:|
C |-0-------0-------0-------0-------|-0-------0-------0-------0-------|
    e   r   e   r   e   r   e   r     e   r   e   r   e   r   e   r


F |---------------------------------|---------------------------------|
C |---------------------------------|---------------------------------|
G |---------------------------------|---------------------------------|
C |-0-------3-----------0-------0---|-0-------3-----------0-------0---|
    q       e   r   r   e   r   e     q       e   r   r   e   r   e


F |---------------------------------|---------------------------------|
C |---------------------------------|---------------------------------|
G |---------------------------------|---------------------------------|
C |-0-------3-----------0-------0---|-5-4-3-0-5-4-3-0-5-4-3-0-5-4-3-0-|
    q       e   r   r   e   r   e     s s s s s s s s s s s s s s s s


F |---------------------------------|---------------------------------|
C |---------------------------------|---------------------------------|
G |---------------------------------|---------------------------------|
C |-0-------3-----------0-------0---|-0-------3-----------0-------0---|
    q       e   r   r   e   r   e     q       e   r   r   e   r   e


F |---------------------------------|---------------------------------|
C |---------------------------------|---------------------------------|
G |---------------------------------|---------------------------------|
C |-0-------3-----------0-------0---|-5-4-3-0-5-4-3-0-3-3-----3-3---0-|
    q       e   r   r   e   r   e     s s s s s s s s s s r   s s x e

   Chorus
F |---------------------------------|---------------------------------|
C |:--------------------------------|---------------------------------|
G |:--------------------------------|---------------------------------|
C |(0)--0---0---0---0---0---0---0---|-3---3---3---3---3---3---3---3---|
   (e)  e   e   e   e   e   e   e     e   e   e   e   e   e   e   e


F |---------------------------------|---------------------------------|
C |---------------------------------|--------------------------------:|
G |---------------------------------|--------------------------------:|
C |-5---5---5---5---5---5---5---5---|-8---8---8---8---8---8---8---8---|
    e   e   e   e   e   e   e   e     e   e   e   e   e   e   e   e

   Pre-Solo
F |---------------------------------|---------------------------------|
C |---------------------------------|---------------------------------|
G |---------------------------------|---------------------------------|
C |-3-0-0-0-4-0-0-0-5-0-0-0-3-5-3-0-|-----5-0-3-5-3-0-----5-0-3-------|
    s s s s s s s s s s s s s s s s   r   s s s s s s r   s s s r


F |---------------------------------|---------------------------------|
C |---------------------------------|---------------------------------|
G |---------------------------------|---------------------------------|
C |-3-0-0-0-4-0-0-0-5-0-0-0-3-5-3-0-|-----5-0-3-5-3-0---------3-3-----|
    s s s s s s s s s s s s s s s s   r   s s s s s s r   r   s s r


   Solo
F |---------------------------------|---------------------------------|
C |---------------------------------|---------------------------------|
G |---------------------------------|---------------------------------|
C |-0---0---0---0---0---0---0---0---|-3---3---3---3---3---3---3---3---|
    e   e   e   e   e   e   e   e     e   e   e   e   e   e   e   e


F |---------------------------------|---------------------------------|
C |---------------------------------|---------------------------------|
G |---------------------------------|---------------------------------|
C |-5---5---5---5---5---5---5---5---|-8---8---8---8---8---8---8---8---|
    e   e   e   e   e   e   e   e     e   e   e   e   e   e   e   e


F |---------------------------------|---------------------------------|
C |---------------------------------|---------------------------------|
G |---------------------------------|---------------------------------|
C |-0---0---0---0---0---0---0---0---|-3---3---3---3---3---3---3---3---|
    e   e   e   e   e   e   e   e     e   e   e   e   e   e   e   e


F |---------------------------------|---------------------------------|
C |---------------------------------|---------------------------------|
G |---------------------------------|---------------------------------|
C |-5-------------------------------|-8-------------------------------|
    w                                 w

   Bridge
F |----------------------------/5---|---------------------------------|
C |---------------------3---3-------|-7-------------------------------|
G |-5---------------5---------------|---------------------------------|
C |---------------------------------|---------------------------------|
    h               e   e   e   e     w


F |---------------------------------|15--------------15--14--12-------|
C |--------------------12-----------|----------------------------15---|
G |10--------------13------13-------|---------------------------------|
C |---------------------------------|---------------------------------|
    h               e   e   q         h               e   e   e   e


F |---------------------------------|---------------------------------|
C |12--------------12--10-----------|---------------------------------|
G |------------------------12--10---|-8-----------------------8-------|
C |---------------------------------|---------------------------------|
    h               e   e   e   e     h.                      q


F |---------------------------------|15--------------17---------------|
C |--------------------12-----------|---------------------------------|
G |10--------------13------13-------|---------------------------------|
C |---------------------------------|---------------------------------|
    h               e   e   q         h               h


F |----------------------------/5---|---------------------------------|
C |---------------------3---3-------|-7-------------------------------|
G |-5---------------5---------------|---------------------------------|
C |---------------------------------|---------------------------------|
    h               e   e   e   e     w


F |---------------------------------|15--------------17---------------|
C |--------------------12-----------|---------------------------------|
G |10--------------13------13-------|---------------------------------|
C |---------------------------------|---------------------------------|
    h               e   e   q         h               h


F |19--------------19--17-----------|---------------------------------|
C |------------------------19--17---|15----------------------17-------|
G |---------------------------------|----------------------------17---|
C |---------------------------------|---------------------------------|
    h               e   e   e   e     h.                      e   e


F |---------------------------------|---------------------------------|
C |15--------------17\--------------|-8-------------------------------|
G |---------------------------------|---------------------------------|
C |---------------------------------|---------------------------------|
    h               h                 w


F |---------------------------------|---------------------------------|
C |---------------------------------|---------------------------------|
G |---------------------------------|---------------------------------|
C |-3-0-0-0-5-0-0-0-----3-0-5-0-3-0-|-5-4-3-0-5-4-3-0-----------------|
    s s s s s s s s r   s s s s s s   s s s s s s s s r   r   r   r


   Chorus
F |---------------------------------|---------------------------------|
C |:--------------------------------|---------------------------------|
G |:--------------------------------|---------------------------------|
C |-0---0---0---0---0---0---0---0---|-3---3---3---3---3---3---3---3---|
    e   e   e   e   e   e   e   e     e   e   e   e   e   e   e   e


F |---------------------------------|---------------------------------|
C |---------------------------------|--------------------------------:|
G |---------------------------------|--------------------------------:|
C |-5---5---5---5---5---5---5---5---|-8---8---8---8---8---8---8---8---|
    e   e   e   e   e   e   e   e     e   e   e   e   e   e   e   e


F |---------------------------------|---------------------------------|
C |:--------------------------------|---------------------------------|
G |:--------------------------------|---------------------------------|
C |-0-0-0-0-0-0-0-0-0-0-0-0-0-0-0-0-|-3-3-3-3-3-3-3-3-3-3-3-3-3-3-3-3-|
    s s s s s s s s s s s s s s s s   s s s s s s s s s s s s s s s s


F |---------------------------------|---------------------------------|
C |---------------------------------|--------------------------------:|
G |---------------------------------|--------------------------------:|
C |-5-5-5-5-5-5-5-5-5-5-5-5-5-5-5-5-|-8-8-8-8-8-8-8-8-8-8-8-8-8-8-8-8-|
    s s s s s s s s s s s s s s s s   s s s s s s s s s s s s s s s s

   Outro
F |---------------------------------|---------------------------------|
C |---------------------------------|---------------------------------|
G |---------------------------------|---------------------------------|
C |-0-------3-----------0-------0---|-0-------3-----------0-------0---|
    q       e   r   r   e   r   e     q       e   r   r   e   r   e


F |---------------------------------|---------------------------------|
C |---------------------------------|---------------------------------|
G |---------------------------------|---------------------------------|
C |-0-------3-----------0-------0---|-5-4-3-0-5-4-3-0-5-4-3-0-5-4-3-0-|
    q       e   r   r   e   r   e     s s s s s s s s s s s s s s s s


F |---------------------------------|---------------------------------|
C |---------------------------------|---------------------------------|
G |---------------------------------|---------------------------------|
C |-3-0-0-0-4-0-0-0-5-0-0-0-3-5-3-0-|-----5-0-3-5-3-0-----5-0-3-------|
    s s s s s s s s s s s s s s s s   r   s s s s s s r   s s s r


F |---------------------------------|---------------------------------|
C |---------------------------------|---------------------------------|
G |---------------------------------|---------------------------------|
C |-3-0-0-0-4-0-0-0-5-0-0-0-3-5-3-0-|-----5-0-3-5-3-0-----------------|
    s s s s s s s s s s s s s s s s   r   s s s s s s r   r   r   r


* - I saw other tab that had the bass doubling the guitar during the verse,
but I hear it staying with the kick drum on every beat.  Play it how you
like it, but this will get you close.

            
            
Suggest correction
Creating personal tab
Creating personal tab
You can edit any tab online and save it as your Personal.

You can edit, replace or remove any tab part or add personal notes – all changes will be seen only by you.

Personal tabs can be accessed anytime from any device, even offline.
Learn more »
Give kudos to tab author, rate the tab!
1 2 3 4 5
comments
print report bad tab
guest
Wanna post a correction for this tab? Suggest correction