Oops, an error
Loading. Please wait.

Rain Wizard bass

version 1
version 1

Whole song

2,924 views 6 this week
no commentswrite comment
1 2 3 4 5
x 4
add to favorites
×
Save as Personal and add changes to this tab that will be seen only by you. Learn more ›
×
You can save this tab as Personal to edit and correct it or add notes. All changes will be seen only by you. Learn more »
launch autoscroll
font size
0
reset
guitar tuner
backing track
0:00
0:00
edit
Autoscroll
slow
fast
+/-
esc
set tempo
stop
//////////////////////// Black Stone Cherry /////////////////////////////
//////////////////////////// Rain Wizard ///////////////////////////////
Tabbed by Andy Denyer:

Bass
(Drop D tuning and 1/2 step down)

      S S E  S S E  E  E  S S E     S S E  S S E  E  E  S S E   
F#||-----------------------------|-----------------------------|
C#||-----------------------------|-----------------------------|
G#||-----------------------------|-----------------------------|
C#||--0-0-0--0-0-0--0--0--0-0-0--|--0-0-0--0-0-0--0--0--0-0-0--|


  S S E  S S E  E  E  S S E     S S E  S S E  E  E  S S E   
-----------------------------|-----------------------------|
-----------------------------|-----------------------------|
-----------------------------|-----------------------------|
--0-0-0--0-0-0--0--0--0-0-0--|--0-0-0--0-0-0--0--0--0-0-0--|


  S S E  S S E  E  E  S S E     S S E  S S E  E  E  S S E   
-----------------------------|-----------------------------|
-----------------------------|-----------------------------|
-----------------------------|-----------------------------|
--0-0-0--0-0-0--0--0--0-0-0--|--0-0-0--0-0-0--0--0--0-0-0--|


  S S E  S S E  E  E  S S E     S S E  S S E  E  E  S S E   
-----------------------------|-----------------------------|
-----------------------------|-----------------------------|
-----------------------------|-----------------------------|
--0-0-0--0-0-0--0--0--0-0-0--|--0-0-0--0-0-0--0--0--0-0-0--|


  S S E  S S E  E  E  S S E     S S E  S S E  E  E  S S E   
-----------------------------|-----------------------------|
-----------------------------|-----------------------------|
-----------------------------|-----------------------------|
--0-0-0--0-0-0--0--0--0-0-0--|--0-0-0--0-0-0--0--0--0-0-0--|


  S S E  S S E  E  E  S S E     S S E  S S E  E  E  S S E   
-----------------------------|-----------------------------|
-----------------------------|-----------------------------|
-----------------------------|-----------------------------|
--0-0-0--0-0-0--0--0--0-0-0--|--0-0-0--0-0-0--0--0--0-0-0--|


  S S E  S S E  E  E  S S E     S S E  S S E  E  E  S S E   
-----------------------------|-----------------------------|
-----------------------------|-----------------------------|
-----------------------------|-----------------------------|
--0-0-0--0-0-0--0--0--0-0-0--|--0-0-0--0-0-0--0--0--0-0-0--|


  S S E  S S E  E  E  S S E     S S E  S S E  E  E  S S E   
-----------------------------|-----------------------------|
-----------------------------|-----------------------------|
-----------------------------|-----------------------------|
--0-0-0--0-0-0--0--0--0-0-0--|--0-0-0--0-0-0--0--0--0-0-0--|


  S S E  S S E  E  E  S S E     S S E  S S E  E  E  S S E   
-----------------------------|-----------------------------|
-----------------------------|-----------------------------|
-----------------------------|-----------------------------|
--0-0-0--0-0-0--0--0--0-0-0--|--0-0-0--0-0-0--0--0--0-0-0--|


  E  E  E  E  E  E  E  E     E  H        Q    E     Q    E  E  E  E  Q     
--------------------------|----------------------|------------------------|
--------------------------|----------------------|------------------------|
--------------------------|----------------------|--5----------------7----|
--0--0--0--0--0--0--0--0--|--0-------------------|-------0--3--5--0-------|


  Q    E  E  E  E  Q       Q    E  E  E  E  Q             
------------------------|------------------------|-------|
------------------------|------------------------|-------|
--3----------------3----|--5----------------5----|-------|
-------0--3--5--0-------|-------0--3--5--0-------|-------|


  Q    E  E  E  E  Q       Q    E  E  E  E  Q       Q    E  E  E  E  Q     
------------------------|------------------------|------------------------|
------------------------|------------------------|------------------------|
--5----------------7----|--3----------------3----|--5----------------5----|
-------0--3--5--0-------|-------0--3--5--0-------|-------0--3--5--0-------|


          E  E  E  Q.     E  E     E  Q.     E  E  E  E   
-------|------------------------|------------------------|
-------|------------------------|------------------------|
-------|--5--5--5---------4--4--|--4---------3--3--3-----|
-------|------------------------|------------------------|


  Q    E  E  E  Q.                E  E  E  Q.     E  E   
-----------------------|-------|------------------------|
-----------------------|-------|------------------------|
-----------------------|-------|--5--5--5---------4--4--|
-------3--0--3---------|-------|------------------------|


  E  Q.     E  E  E  E     Q    E  E  E  Q.        H        H         
------------------------|-----------------------|--------------------|
------------------------|-----------------------|--------------------|
--4---------3--3--3-----|-----------------------|--------------------|
------------------------|-------3--0--3---------|-----------5--------|


  E  E  E  Q.     E  E     E  Q.     E  E  E  E     Q    E  E  E  Q.      
------------------------|------------------------|-----------------------|
------------------------|------------------------|-----------------------|
--5--5--5---------4--4--|--4---------3--3--3-----|-----------------------|
------------------------|------------------------|-------3--0--3---------|


          E  E  E  Q.     E  E     E  Q.     E  E  E  E     W                 
-------|------------------------|------------------------|-------------------|
-------|------------------------|------------------------|-------------------|
-------|--5--5--5---------4--4--|--4---------3--3--3-----|-------------------|
-------|------------------------|------------------------|-------------------|


  W                   Q    E  E  Q    Q       Q    Q    Q    E  E   
-------------------|-----------------------|-----------------------|
-------------------|-----------------------|-----------------------|
-------------------|--5----5--5--5----1----|--L----1----1----1--1--|
-------------------|-----------------------|-----------------------|


  Q    E  E  Q    Q       Q    Q    Q    E  E     Q    E  E  Q    Q     
-----------------------|-----------------------|-----------------------|
-----------------------|-----------------------|-----------------------|
--3----3--3--3----5----|--L----5----5----5--5--|-----------------------|
-----------------------|-----------------------|--7----7--7--7----3----|


  Q    Q    Q    Q       Q    E  E  Q    Q       Q    Q    Q    E  E   
----------------------|-----------------------|-----------------------|
----------------------|-----------------------|-----------------------|
----------------------|--3----3--3--3----5----|--L----5----5----5--5--|
--L----3----3----3----|-----------------------|-----------------------|


  Q    E  E  Q    Q       Q    Q    Q    E  E     Q    E  E  Q    Q     
-----------------------|-----------------------|-----------------------|
-----------------------|-----------------------|-----------------------|
--5----5--5--5----1----|--L----1----1----1--1--|--3----3--3--3----5----|
-----------------------|-----------------------|-----------------------|


  Q    Q    Q    E  E     Q    E  E  Q    Q       Q    Q    Q    Q     
-----------------------|-----------------------|----------------------|
-----------------------|-----------------------|----------------------|
--L----5----5----5--5--|-----------------------|----------------------|
-----------------------|--7----7--7--7----3----|--L----3----3----3----|


  Q    E  E  Q    Q       Q    Q    Q    E  E     Q    E  E  E  E  Q     
-----------------------|-----------------------|------------------------|
-----------------------|-----------------------|------------------------|
--3----3--3--3----5----|--L----5----5----5--5--|--5----------------7----|
-----------------------|-----------------------|-------0--3--5--0-------|


  Q    E  E  E  E  Q       Q    E  E  E  E  Q             
------------------------|------------------------|-------|
------------------------|------------------------|-------|
--3----------------3----|--5----------------5----|-------|
-------0--3--5--0-------|-------0--3--5--0-------|-------|


  E  E  E  Q.     E  E     E  Q.     E  E  E  E     Q    E  E  E  Q.      
------------------------|------------------------|-----------------------|
------------------------|------------------------|-----------------------|
--5--5--5---------4--4--|--4---------3--3--3-----|-----------------------|
------------------------|------------------------|-------3--0--3---------|


          E  E  E  Q.     E  E     E  Q.     E  E  E  E   
-------|------------------------|------------------------|
-------|------------------------|------------------------|
-------|--5--5--5---------4--4--|--4---------3--3--3-----|
-------|------------------------|------------------------|


  Q    E  E  E  Q.        H        H           E  E  E  Q.     E  E   
-----------------------|--------------------|------------------------|
-----------------------|--------------------|------------------------|
-----------------------|--------------------|--5--5--5---------4--4--|
-------3--0--3---------|-----------5--------|------------------------|


  E  Q.     E  E  E  E     Q    E  E  E  Q.              
------------------------|-----------------------|-------|
------------------------|-----------------------|-------|
--4---------3--3--3-----|-----------------------|-------|
------------------------|-------3--0--3---------|-------|


  E  E  E  Q.     E  E     E  Q.     E  E  E  E                   
------------------------|------------------------|-------|-------|
------------------------|------------------------|-------|-------|
--5--5--5---------4--4--|--4---------3--3--3-----|-------|-------|
------------------------|------------------------|-------|-------|


  Q    E  E  Q    Q       Q    Q    Q    E  E     Q    E  E  Q    Q     
-----------------------|-----------------------|-----------------------|
-----------------------|-----------------------|-----------------------|
--5----5--5--5----1----|--L----1----1----1--1--|--3----3--3--3----5----|
-----------------------|-----------------------|-----------------------|


  Q    Q    Q    E  E     Q    E  E  Q    Q       Q    Q    Q    Q     
-----------------------|-----------------------|----------------------|
-----------------------|-----------------------|----------------------|
--L----5----5----5--5--|-----------------------|----------------------|
-----------------------|--7----7--7--7----3----|--L----3----3----3----|


  Q    E  E  Q    Q       Q    Q    Q    E  E     Q    E  E  Q    Q     
-----------------------|-----------------------|-----------------------|
-----------------------|-----------------------|-----------------------|
--3----3--3--3----5----|--L----5----5----5--5--|--5----5--5--5----1----|
-----------------------|-----------------------|-----------------------|


  Q    Q    Q    E  E     Q    E  E  Q    Q       Q    Q    Q    E  E   
-----------------------|-----------------------|-----------------------|
-----------------------|-----------------------|-----------------------|
--L----1----1----1--1--|--3----3--3--3----5----|--L----5----5----5--5--|
-----------------------|-----------------------|-----------------------|


  Q    E  E  Q    Q       Q    Q    Q    Q       Q    E  E  Q    Q     
-----------------------|----------------------|-----------------------|
-----------------------|----------------------|-----------------------|
-----------------------|----------------------|--3----3--3--3----5----|
--7----7--7--7----3----|--L----3----3----3----|-----------------------|


  Q    Q    Q    E  E     E  E  E  E  E  E  E  E     E  E  E  E  E  E  E  E   
-----------------------|--------------------------|--------------------------|
-----------------------|--------------------------|--------------------------|
--L----5----5----5--5--|--------------3-----------|--5--3-----5--3-----5--3--|
-----------------------|--3--0--3--5-----5--3--0--|--------5--------5--------|


  E  E  E  E  E  E  E  E     E  E  E  E  E  E  Q       E  E  E  E  E  E  E  E   
--------------------------|-------------------------|--------------------------|
--------------------------|-----------3--0----------|--------------------------|
--------------3-----------|--5--3-----------3--5----|--------------3-----------|
--3--0--3--5-----5--3--0--|--------5----------------|--3--0--3--5-----5--3--0--|


  E  E  E  E  E  E  E  E     E  E  E  E  E  E  E  E     H        H         
--------------------------|--------------------------|--------------------|
--------------------------|--------------------------|--------------------|
--5--3-----5--3-----5--3--|--------------3-----------|--------------------|
--------5--------5--------|--3--0--3--5-----5--3--0--|--3--------2--------|


  Q    E  E  Q    Q       Q    Q    Q    E  E     Q    E  E  Q    Q     
-----------------------|-----------------------|-----------------------|
-----------------------|-----------------------|-----------------------|
--5----5--5--5----1----|--L----1----1----1--1--|--3----3--3--3----5----|
-----------------------|-----------------------|-----------------------|


  Q    Q    Q    E  E     Q    E  E  Q    Q       Q    Q    Q    Q     
-----------------------|-----------------------|----------------------|
-----------------------|-----------------------|----------------------|
--L----5----5----5--5--|-----------------------|----------------------|
-----------------------|--7----7--7--7----3----|--L----3----3----3----|


  Q    E  E  Q    Q       Q    Q    Q    E  E     Q    E  E  Q    Q     
-----------------------|-----------------------|-----------------------|
-----------------------|-----------------------|-----------------------|
--3----3--3--3----5----|--L----5----5----5--5--|--5----5--5--5----1----|
-----------------------|-----------------------|-----------------------|


  Q    Q    Q    E  E     Q    E  E  Q    Q       Q    Q    Q    E  E   
-----------------------|-----------------------|-----------------------|
-----------------------|-----------------------|-----------------------|
--L----1----1----1--1--|--3----3--3--3----5----|--L----5----5----5--5--|
-----------------------|-----------------------|-----------------------|


  Q    E  E  Q    Q       Q    Q    Q    Q       Q    E  E  Q    Q     
-----------------------|----------------------|-----------------------|
-----------------------|----------------------|-----------------------|
-----------------------|----------------------|--3----3--3--3----5----|
--7----7--7--7----3----|--L----3----3----3----|-----------------------|


  Q    Q    Q    E  E     Q    E  E  Q    Q       Q    Q    Q    E  E   
-----------------------|-----------------------|-----------------------|
-----------------------|-----------------------|-----------------------|
--L----5----5----5--5--|--5----5--5--5----1----|--L----1----1----1--1--|
-----------------------|-----------------------|-----------------------|


  Q    E  E  Q    Q       Q    Q    Q    E  E     Q    E  E  Q    Q     
-----------------------|-----------------------|-----------------------|
-----------------------|-----------------------|-----------------------|
--3----3--3--3----5----|--L----5----5----5--5--|-----------------------|
-----------------------|-----------------------|--7----7--7--7----3----|


  Q    Q    Q    Q       Q    E  E  Q    Q       Q    Q    Q    E  E   
----------------------|-----------------------|-----------------------|
----------------------|-----------------------|-----------------------|
----------------------|--3----3--3--3----5----|--L----5----5----5--5--|
--L----3----3----3----|-----------------------|-----------------------|


  Q    E  E  Q    Q       Q    Q    Q    E  E     Q    E  E  Q    Q     
-----------------------|-----------------------|-----------------------|
-----------------------|-----------------------|-----------------------|
--5----5--5--5----1----|--L----1----1----1--1--|--3----3--3--3----5----|
-----------------------|-----------------------|-----------------------|


  Q    Q    Q    E  E     Q    E  E  Q    Q       Q    Q    Q    Q     
-----------------------|-----------------------|----------------------|
-----------------------|-----------------------|----------------------|
--L----5----5----5--5--|-----------------------|----------------------|
-----------------------|--7----7--7--7----3----|--L----3----3----3----|


  Q    E  E  Q    Q       Q    Q    Q    E  E     Q    E  E  E  E  Q     
-----------------------|-----------------------|------------------------|
-----------------------|-----------------------|------------------------|
--3----3--3--3----5----|--L----5----5----5--5--|--5----------------7----|
-----------------------|-----------------------|-------0--3--5--0-------|


  Q    E  E  E  E  Q       Q    E  E  E  E  Q             
------------------------|------------------------|-------|
------------------------|------------------------|-------|
--3----------------3----|--5----------------5----|-------|
-------0--3--5--0-------|-------0--3--5--0-------|-------|


  Q    E  E  E  E  Q       Q    E  E  E  E  Q       Q    E  E  E  E  Q     
------------------------|------------------------|------------------------|
------------------------|------------------------|------------------------|
--5----------------7----|--3----------------3----|--5----------------5----|
-------0--3--5--0-------|-------0--3--5--0-------|-------0--3--5--0-------|


  E  E  E  E  E  E  E  E     E  E  E  E  E  E  E  E            
--------------------------|--------------------------|-------||
--------------------------|--------------------------|-------||
--------------------------|--------------------------|-------||
--0--0--0-----------2--2--|--2-----------3--3--3-----|-------||




Duration Legend
---------------
W - whole
H - half
Q - quarter
E - 8th
S - 16th
T - 32nd
X - 64th
. - note dotted
|-n-|  - n-tuplets


Tablature Legend
----------------
L - tied note
x - dead note
g - grace note
(n) - ghost note
> - accentuded note
NH - natural harmonic
AH - artificial harmonic
TH - tapped harmonic
SH - semi harmonic
PH - pitch harmonic
h - hammer on
p - pull off
b - bend
br - bendRelease
pb - preBend
pbr - preBendRelease
brb - bendReleaseBend
\n/ - tremolo bar dip
\n - tremolo bar dive
-/n - tremolo bar Release up
/n\ - tremolo bar inverted dip
/n - tremolo bar return
-\n - tremolo bar Release down
S - shift slide
s - legato slide
/ -  slide into from below or out of upwards
\ -  slide into from above or out of downwards
~ - vibrato
W - wide vibrato
tr - trill
TP - tremolo picking
T - tapping
S - slap
P - pop
< - fade in
^ - brush up
v - brush down

            
            
Suggest correction
Creating personal tab
Creating personal tab
You can edit any tab online and save it as your Personal.

You can edit, replace or remove any tab part or add personal notes – all changes will be seen only by you.

Personal tabs can be accessed anytime from any device, even offline.
Learn more »
comments
print report bad tab
guest
Wanna post a correction for this tab? Suggest correction