Oops, an error
Loading. Please wait.

Im A Man tab

version 1
version 1

Whole song

Interactive

113,169 views 102 this week
6 commentsread comments
1 2 3 4 5
x 14
add to favorites
×
Save as Personal and add changes to this tab that will be seen only by you. Learn more ›
×
You can save this tab as Personal to edit and correct it or add notes. All changes will be seen only by you. Learn more »
launch autoscroll
font size
0
reset
how to read this tab
guitar tuner
edit
Autoscroll
slow
fast
+/-
esc
set tempo
stop
Author
----------------------------------------------------------------------------
                             I'm a Man - Black Strobe
----------------------------------------------------------------------------
Tabbed by: Didaco
Great song. The soundtrack of RocknRolla


Tuning: DADGBe


[Intro]

00:00 to 00:33 
Guitar
e|-----------------|
B|-----------------|
G|-----------------|
D|-----------------|
A|-----------------|
D|--2--7--5--2-----|

Bass
G|-----------------|
D|-----------------|
A|-----------------|
D|--2--7--5--2-----|


[Verse]

00:35 to 00:51 
Guitar I & Guitar II (the same but Guitar II with drive)
e|-------------------------------------------------------------------|
B|-------------------------------------------------------------------|
G|-------------------------------------------------------------------|
D|-------------------------------------------------------------------|
A|-------------------------------------------------------------------|
D|--2--7--5--2-2--2--2--2--2--2-2--5--7--2-2--2--2--2--2--2-2--5--7--|

Bass (Repet only this note during the verse)
G|---------------------------------------------------------------------|
D|---------------------------------------------------------------------|
A|---------------------------------------------------------------------|
D|--2--7--5--2----------------2-2--5--7--2----------------2-2--5--7--2-|

00:52 to 01:04
Guitar I
e|-------------------------------------------------------------------|
B|-------------------------------------------------------------------|
G|-------------------------------------------------------------------|
D|-------------------------------------------------------------------|
A|-------------------------------------------------------------------|
D|--2--7--5--2-2--2--2--2--2--2-2--5--7--2-2--2--2--2--2--2-2--5--7--|

Guitar II (Black Strobe use some strange effect, we use guitar)
e|-------------------------------------------------------------------|
B|-------------------------------------------------------------------|
G|-------------------------------------------------------------------|
D|--2--7--5--2-2--2--2--2--2--2-2--5--7--2-2--2--2--2--2--2-2--5--7--|
A|--2--7--5--2-2--2--2--2--2--2-2--5--7--2-2--2--2--2--2--2-2--5--7--|
D|--2--7--5--2-2--2--2--2--2--2-2--5--7--2-2--2--2--2--2--2-2--5--7--|

Bass
G|-------------------------------------------------------------------|
D|-------------------------------------------------------------------|
A|-------------------------------------------------------------------|
D|--2--7--5--2-2--2--2--2--2--2-2--5--7--2-2--2--2--2--2--2-2--5--7--|


[The rest of song]

(from 01:05 to 03:21)is equal, sometimes the Chourse changes in:
e|---------------------------------------|
B|---------------------------------------|
G|-----------5-5--5--5--5--5-------------|
D|--2--7--5--5-5--5--5--5--5--2-2--5--7--|
A|--2--7--5--3-3--3--3--3--3--2-2--5--7--|
D|--2--7--5-------------------2-2--5--7--|


[Outro]

03:22 to 04:30
Guitar I (Change for the rest of the song, Guitar II and Bass are the same) 
e|--------------------------------------|
B|--------------------------------------|
G|---------------------------------5----|
D|----4-3---4-3-2-3----3-4---3-4-2------|
A|--2-----2----------2-----2------------|
D|--------------------------------------|

            
            
Suggest correction
Creating personal tab
Creating personal tab
You can edit any tab online and save it as your Personal.

You can edit, replace or remove any tab part or add personal notes – all changes will be seen only by you.

Personal tabs can be accessed anytime from any device, even offline.
Learn more »
comments
print report bad tab
6 comments total. Showing first comments.
-1 reply
JGrau 10 Nov 24, 2009 03:46 AM

i'd rather do this for the famous rocknrolla intro
e|-----------------|
B|-----------------|
G|-----------------|
D|-----------------|
A|-----2--0--------|
D|--2--------2-----|

that way you strike the same notes but actually in a more comfortable way don't you?

0 reply
wodewick72 146 Nov 24, 2009 04:56 AM

The rest of song (from 01:05 to 03:21)is equal, the Chorus is the same but a 2nd guitar with standard tuning (EADGBe) is added which acts a weird B/E chord behind the main blues rift:
e|-----------------------------|
B|-----------------------------|
G|-----------------------------|
D|--9-9--9--9--9-9--9--9--9-9--|
A|--7-7--7--7--7-7--7--7--7-7--|
E|--7-7--7--7--7-7--7--7--7-7--|

Later on the the song the 1st guitar starts playing the rift with the 5th fret instead of the 2nd so its like.

e|---------------------------------|
e|---------------------------------|
B|---------------------------------|
G|---------------------------------|
D|--2-7-5-5-5--5--5--5--5-2-7-5-2--|
A|--2-7-5-5-5--5--5--5--5-2-7-5-2--|
D|--2-7-5-5-5--5--5--5--5-2-7-5-2--|

03:22 to 04:30
2nd Guitar is then playing this rift towards the end (i think).
e|---------------------------|
e|-0-0-----0-0---0-0-----0---|
B|-----3-3-----3-----3-3---3-|
G|---------------------------|
D|---------------------------|
A|---------------------------|
E|---------------------------|

+1 reply
wodewick72 146 Nov 24, 2009 05:04 AM

I also want to add that this is an awesome song and an awesome rift, thanks matey. I think these changes I've put up are correct.

You have to play this song with the volume up and lots of reverb (and bar your finger over the top strings). Then you get the sound you want from the 1st guitar. Great tab again. Cheers!!! :-D

guest
You may want to rate the tab now too:
select rating
Wanna post a correction for this tab? Suggest correction