Oops, an error
Loading. Please wait.
We have an official Shockwave tab made by UG professional guitarists. Check out the tab »
×
9,308 views 1 this week
5 commentsread comments
1 2 3 4 5
x 9
add to favorites
×
Save as Personal and add changes to this tab that will be seen only by you. Learn more ›
×
You can save this tab as Personal to edit and correct it or add notes. All changes will be seen only by you. Learn more »
launch autoscroll
font size
0
reset
guitar tuner
backing track
0:00
0:00
edit
Autoscroll
slow
fast
+/-
esc
set tempo
stop
Author
Difficulty
Black Tide - Shockwave    
Bassline
Standard Tuning
:::::::::::::::::::::::::::::::::::::::::::::::::::::::::::::::::::::::
Intro
|-----||-------|-----|
|-----||-------|-----|
|-----||-------|-----|
|3-3-3||3~~~~~~|3-3-3|

Pre-Verse
|--------------------------------------------------|
|--------------------------------------------------|
|------------------------------------------4-4-----|
|333333333333012333333333333012333333333333---00112|

Verse
|------------------------------------------------------------|
|------------------------------------------------------------|
|-------------------------------------------333333333331-----|  (sub for 3)
|333333333333012333333333333-566666666666645------------0-(2)|

Chorus
|---------------------------|
|---------------------------|
|1-1-----3-3----------------|
|----1-1-----012333333333333|

Pre-Verse
Verse

2nd Chorus
|---------------------------|repeat|--------------------|
|---------------------------|      |--------------------|
|1-1-----3-3----------------|      |1-1-----3-3---------|
|----1-1-----012333333333333|      |----1-1-----0123~~~~|

Bridge
|---------|
|---------|
|---------|
|///15~~~~|

Solo
|---------------------------------------------------------|
|---------------------------------------------------------|
|-------------------------65-33333333333555566666666666---|  
|333333333333-666666666666-----------------------------0-2|

|--------------------------------------------------------------|
|------------------------------------------------------5-3-----|
|-------------------------65-33333333333555566666666666---653--|  
|333333333333-666666666666-----------------------------------64|

3rd Chorus
|---------------------------|repeat|--------------------|
|---------------------------|      |--------------------|
|1-1-----3-3----------------|      |1-1-----3-3---------|
|----1-1-----012333333333333|      |----1-1-----0123~~~~|

Solo

End
|-|---------------------|
|-|---------------------|
|-|1-1-----1-1----------|
|3|----1-1-----1-1-3~~~~|

            
            
Suggest correction
Creating personal tab
Creating personal tab
You can edit any tab online and save it as your Personal.

You can edit, replace or remove any tab part or add personal notes – all changes will be seen only by you.

Personal tabs can be accessed anytime from any device, even offline.
Learn more »
comments
print report bad tab
5 comments total. Showing first comments.
+2 reply
Greggz1234 10 Mar 30, 2008 12:43 PM

great tab...i rated 5 stars woo......ive been waiting for a bass tab for this song for ages =D

+1 reply
TheRecoveryKid 10 Aug 23, 2008 09:24 AM

looks good

+1 reply
MusicMan24 1,144 Dec 21, 2008 04:41 PM

Awesome tab man

guest
You may want to rate the tab now too:
select rating
Wanna post a correction for this tab? Suggest correction