Oops, an error
Loading. Please wait.

Warriors Of Time bass

version 1
version 1

Whole song

Interactive

4,046 views 6 this week
4 commentsread comments
1 2 3 4 5
2 more votes to show rating
add to favorites
×
Save as Personal and add changes to this tab that will be seen only by you. Learn more ›
×
You can save this tab as Personal to edit and correct it or add notes. All changes will be seen only by you. Learn more »
launch autoscroll
font size
0
reset
guitar tuner
edit
Autoscroll
slow
fast
+/-
esc
set tempo
stop
Author
G|-23-21-19-21--------17-15-14h15p14------------12-10-9-10----12--------------|
D|-----------------15----------------15-----10-------------10-----------------|
A|--------------13-------------------------8----------------------------------|
E|----------------------------------------------------------------------------|

G|-24-22-21h22p21-------------22-21-19-21---------17-15-14h15p14--------------|
D|----------------22-------19------------------15----------------15-----------|
A|--------------------1717----------------1313--------------------------------|
E|----------------------------------------------------------------------------|

G|-----12-10-9-10----12-----24-22-21h22p21-----------22-21-19-21--------------|
D|-10-------------10-----------------------22-----19--------------------------|
A|8--------------------------------------------17-----------------------------|
E|----------------------------------------------------------------------------|

G|-------17-15-14h15p14----------12-10-9-10----12-----24-22-21h22p21----------|
D|----15----------------15---10-------------10-----------------------22-------|
A|-13-----------------------8-------------------------------------------------|
E|----------------------------------------------------------------------------|

G|---------22-21-19-21---------17-15-14h15p14----------12-10-9-10----12-------|
D|------19------------------15----------------15---10-------------10----------|
A|-1717----------------1313-----------------------8---------------------------|
E|----------------------------------------------------------------------------|

G|-24-22-21h22p21---------10-9-7-9------5-3-2h3p2-----------------------------|
D|----------------22----7-------------------------3-----5-3-2-3---5-----------|
A|--------------------5-------------1-1---------------3---------3-------------|
E|---------------------------------------------------3------------------------|

G|-12-10-9h10p9---------10-9-7-9--------5-3-2h3p2-----------------------------|
D|--------------10----7---------------3-----------3-----5-3-2-3---5-----------|
A|------------------55-------------11-----------------3---------3-------------|
E|--------------------------------------------------3-------------------------|
                                   *^^*NOTE:That's 1-1 fast, not 11 on the A
G|-12-10-9h10p9---------------------------------------------------------------|
D|--------------10~~~~--------------------------------------------------------|
A|----------------------------------------------------------------------------|
E|----------------------------------------------------------------------------|

My first tab, hope you like it. Comments and suggestions are welcome 

            
            
Suggest correction
Creating personal tab
Creating personal tab
You can edit any tab online and save it as your Personal.

You can edit, replace or remove any tab part or add personal notes – all changes will be seen only by you.

Personal tabs can be accessed anytime from any device, even offline.
Learn more »
Give kudos to tab author, rate the tab!
1 2 3 4 5
comments
print report bad tab
4 comments total. Showing first comments.
0 reply
MetaIronForce 91 Aug 19, 2010 01:48 AM

um... which bit of the song is this?

0 reply
hellbasser 40 Oct 17, 2010 07:47 PM

Just the intro.

With the acoustic guitar and stuff..

0 reply
zkaty 10 Aug 14, 2011 07:46 AM

so you only put the begging of the song in...

guest
You may want to rate the tab now too:
select rating
Wanna post a correction for this tab? Suggest correction