Oops, an error
Loading. Please wait.

Warriors Of Time intro tab

version 5
version 5

Whole song

Interactive

47,307 views 3 this week
4 commentsread comments
1 2 3 4 5
x 17
add to favorites
×
Save as Personal and add changes to this tab that will be seen only by you. Learn more ›
×
You can save this tab as Personal to edit and correct it or add notes. All changes will be seen only by you. Learn more »
launch autoscroll
font size
0
reset
how to read this tab
guitar tuner
edit
Autoscroll
slow
fast
+/-
esc
set tempo
stop
Author
Whats up everybody. This tab only took me about a day so its not too hard.

Tuning: Standard
Key: D


(/) Slide Up  (\) Slide Down  (h) Hammer On  (p) Pull Off  ~Vibrato

These are the chords that are played during the acoustic lead part.
E|-1-----|-1-----|-1-----|-0-----|
B|-3-----|-3-----|-1-----|-1-----|
G|-2-----|-3-----|-2-----|-0-----|
D|-0-----|-3-----|-3-----|-2-----|
A|-------|-1-----|-3-----|-3-----|
E|-------|-------|-1-----|-------|

Guitar 1(Acoustic)
E|----------------|----------------------|---------------|---------------------|
B|----------------|----------------------|---------------|-----5/8-6-5h6p5-----|
G|-----7/10-9-7-9-|----------------------|---------------|-----------------5p0-|
D|---7------------|-----7/10-8-7h8p7-----|-----3h5p3-2-3-|---5-----------------|
A|-5--------------|---8--------------8---|---3-----------|-3-------------------|
E|----------------|-6------------------8-|-1-------------|---------------------|

                   0:08
E|----------------|----------------------|---------------|------------------------|
B|----------------|----------------------|---------------|-----5/8-6-5h6p5--------|
G|-----7/10-9-7-9-|----------------------|---------------|-----------------5p0----|   x5
D|---7------------|-----7/10-8-7h8p7-----|-----3h5p3-2-3-|---5--------------------|
A|55--------------|---8--------------8---|---3-----------|-3----------------------|
E|----------------|66------------------8-|-1-------------|------------------------|

Guitar 2(Acoustic) 0:08
E|----------------|----------------------|---------------|-----6-5-3-5p3------|
B|-----8/10-8-6-8-|----------------------|---------------|---------------6p5--|
G|----------------|-----10-9----10p9-----|-----2/3-2-0-2-|--------------------|   x5
D|---7------------|---8------10------10p8|---3-----------|---5----------------|
A|55--------------|----------------------|---------------|-3------------------|
E|----------------|66--------------------|-1-------------|--------------------|

Guitar 3(Acoustic) 0:17
E|-5----------------|---------------------|-----------1-|----------8-|
B|---6-5-6----------|---------------------|-------1--1--|-------5-5--|
G|------------------|-------7-10-9---9-10-|----2-2--2---|----5-5-5---|  x4
D|------------------|---8/10------10------|---3-3-------|-5-5-5------|
A|------------------|--8------------------|--3----------|--3---------|
E|------------------|-6-------------------|-1-----------|------------|


Guitar 4(Electric) 0:43
E|----------------|----------------------|---------------|-8~~~~~~~~~~~-------|
B|-5-6-8--5-6-8---|-5-6-8--5-6-8-6~~~~~~~|-5---5-8-5-8---|--------------------|
G|----------------|----------------------|---5-----------|--------------------|
D|----------------|----------------------|---------------|--------------------|
A|----------------|----------------------|---------------|--------------------|
E|----------------|----------------------|---------------|--------------------|

Woah part  1:01
E|--------|--------|--------|--------|
B|--------|--------|--------|--------|
G|-7------|-3------|--------|-5------|
D|-7------|-3------|-3------|-5------|
A|-5------|-1------|-3------|-3------|
E|--------|--------|-1------|-3------|

            
            
Suggest correction
Creating personal tab
Creating personal tab
You can edit any tab online and save it as your Personal.

You can edit, replace or remove any tab part or add personal notes – all changes will be seen only by you.

Personal tabs can be accessed anytime from any device, even offline.
Learn more »
comments
print report bad tab
4 comments total. Showing first comments.
0 reply
smartin6988 177 Mar 10, 2009 04:33 PM

Sorry everybody the first chord is a Dm so it is

E|-1-----|
B|-3-----|
G|-2-----|
D|-0-----|
A|-------|
E|-------|

+1 reply
zandmstudios 10 Jun 23, 2009 08:10 AM

yo nice tab man...do you have a guitar pro/power tab version of this? cuz that would be great...thx. PEACE!!!

0 reply
simonshand 20 Sep 24, 2009 10:29 AM

beautiful song, great tab thanks 5*

guest
You may want to rate the tab now too:
select rating
Wanna post a correction for this tab? Suggest correction