Oops, an error
Loading. Please wait.

Faithless tab

version 2
version 2

Whole song

  • Tabbed from Jake Pitts' (Lead guitarist in Black Veil Brides) Guitar Lesson.

Interactive

6,410 views 12 this week
1 commentread comment
1 2 3 4 5
x 10
add to favorites
×
Save as Personal and add changes to this tab that will be seen only by you. Learn more ›
×
You can save this tab as Personal to edit and correct it or add notes. All changes will be seen only by you. Learn more »
launch autoscroll
font size
0
reset
how to read this tab
guitar tuner
edit
Autoscroll
slow
fast
+/-
esc
set tempo
stop
-------------------------------------------------------------------------------
                            Faithless - Black Veil Brides
-------------------------------------------------------------------------------
Tabbed by: TNL Choppers FF (Xbox Live) If any Questions message me there 
or comment below :D 

This is my first tab and I believe this is 100% correct. Please Rate and give 
feedback :) Also I am going to give you guys and girls the key in the beginning
of this tab.
. Palm Mutes
/ slide up
\ slide down
~ Vibrato
h Hammer-on
p Pull-off
x Muted Note 

Tuning: Drop C 
   
Intro- Repeat Intro 5 times then the 6th replace the taps with a pick slide, then
on the 8th time play muting the taps. 
e|---------------------------------------------------------------------------|
B|---------------------------------------------------------------------------|
G|---------------------------------------------------------------------------|
D|-0-------------------------------------------------------------------------|
A|-0-------6----3h5----6----3h5--------------------6-----3h5-----------------|
E|-0---00----00-----00---00-----00-5-00-3-3/1-0-00---00------00--------------|
       ..    ..     ..   ..     ..   ..         ..   ..      ..
e|---------------------------------------------------------------------------|
B|---------------------------------------------------------------------------|
G|---------------------------------------------------------------------------|
D|---------------------------------------------------------------------------|
A|-9h10p9h10p9h10-6h10p6h10p6h10---------------------------------------------|
E|---------------------------------------------------------------------------|

Verse Riff- All the 3h5 are not really Hammer-ons i just think it sounds the
same considering I have a very hard hammer-on also the same goes for the (5p3) 
e|---------------------------------------------------------------------------|
B|---------------------------------------------------------------------------|
G|---------------------------------------------------------------------------|
D|--------------------------5-------------------------------------5----------|
A|------6----3h5----8-----7------3----5p3------5----3h5----8----7------------|
E|-0-00---00-----00---00------00---00-----0-00---00-----00---00-----00-------|
     ..   ..     ..   ..      ..   ..       ..   ..     ..   ..     ..
e|---------------------------------------------------------------------------|
B|---------------------------------------------------------------------------|
G|---------------------------------------------------------------------------|
D|---------------------------------------------------------------------------|
A|-3h5p3p0--------------------------------------------------------5-----3h5--|
E|---------3h5p3p0---0-00-5-00-3h5-00-6-5-3-5p3p0-0-1-3-0---0-000----00------|
                                                              ...    ..
e|---------------------------------------------------------------------------|
B|---------------------------------------------------------------------------|
G|---------------------------------------------------------------------------|
D|------5---------------------------3p0\3-6-5-3---------------------------5--|
A|----7------3----5p3----5----3h5---3p0\3-6-5-3--------5----3h5----8----7----|
E|-00-----00---00-----00---00-----0-3p0\3-6-5-3---0-00---00-----00---00------|
   ..     ..   ..     ..   ..                       ..   ..     ..   ..
e|---------------------------------------------------------------------------|
B|---------------------------------------------------------------------------|
G|---------------------------------------------------------------------------|
D|---------------------------------------------------------------------------|
A|----3h5p3p0-------------------------------------------------------5----3h5-|
E|-00---------3h5p3p0--0-00-5-00-3h5-00-6-5-3-5p3p0-0-1-3-0---0-000---00-----|
   ..                    ..   ..     ..                         ...   ..
e|---------------------------------------------------------------------------|
B|---------------------------------------------------------------------------|
G|---------------------------------------------------------------------------|
D|-----------5---------------------------3p0-3\6-5-3-------------------------|
A|----8----7------3----5p3----5----3h5---3p0-3\6-5-3---------5----3h5--------|
E|-00---00-----00---00-----00---00-----0-3p0-3\6-5-3---0-000---00------------|
   ..   ..     ..   ..     ..   ..                       ...   ..     
e|---------------------------------------------------------------------------|
B|---------------------------------------------------------------------------|
G|---------------------------------------------------------------------------|
D|-----------5---------------------------------------------------------------|
A|----8----7------3h5p3p0----------------------------------------------------|
E|-00---00-----00---------3h5p3p0--00-5-00-3h5-0-6-5-3h5p3p0--1-3-0----------|
   ..   ..     ..                  ..   ..            
Pre Chorus
e|---------------------------------------------------------------------------|
B|---------------------------------------------------------------------------|
G|---------------------------------------------------------------------------|
D|-7-7-------------------7-7----------------------7-7------------------------|
A|-5-5-6-6-5---5-3-6-5-3-5-5-6-6-5----------------5-5-6-6-5-3----------------|
E|-----6-6-5-0-5-3-6-5-3-----6-6-5--0-3-0-3-5-6-5-----6-6-5-3--5-3-6-5-3-0---|

e|---------------------------------------------------------------------------|
B|---------------------------------------------------------------------------|
G|---------------------------------------------------------------------------|
D|-3-3-2-2--66-6-6666-66-----------------------------------------------------|
A|-1-1-0-0--44-4-4444-44-----------------------------------------------------|
E|---------------------------------------------------------------------------|

Chorus- I put the X8 for repeating it that many times because I hate going though 
and counting all the numbers, when I read tabs/chords!

e|---------------------------------------------------------------------------|
B|---------------------------------------------------------------------------|
G|-(7)-----(9)-----(10)----(7)-----(10)----(12)-----(14)-----(10)----(14)----|
D|-(x)-X8--(x)-X4--(x)-X4--(x)-X8--(x)-X4---(x)-X4---(x)-X8--(x)-X4---(x)-X4-|
A|-(5)-----(7)-----(8)-----(5)-----(8)-----(10)-----(12)-----(8)-----(12)----|
E|---------------------------------------------------------------------------|
                           Down Strokes in between the lines
e|-------------------------|------------------------------|------------------|
B|-------------------------|------------------------------|------------------|
G|-(12)-----(9)-----(7)----|(9)-----(10)----(7)-----(10)--|-(12)-----(10)----|
D|-(x)--X8--(x)-X8--(x)-X8-|(x)-X4--(x)-X4--(x)-X8--(x)---|--(x)-X4--(x)-X8--|
A|-(10)-----(7)-----(5)----|(7)-----(8)-----(5)-----(8)---|-(10)-----(8)-----|
E|-------------------------|------------------------------|------------------|

e|---------------------------------------------------------------------------|
B|---------------------------------------------------------------------------|
G|-(9)-----(10)----(9)-----(5)-----------------------------------------------|
D|-(x)-X4--(x)-X4--(x)-X8--(x)-X8--------------------------------------------|
A|-(7)-----(8)-----(7)-----(3)------6----3h5----6----3h5---6----3h5----------|
E|-------------------------------00---00-----00---00----00---00-----00-5-00--|
                                 ..   ..     ..   ..    ..   ..     ..   ..
e|---------------------------------------------------------------------------|
B|---------------------------------------------------------------------------|
G|---------------------------------------------------------------------------|
D|---------------------------------------------------------------------------|
A|-------------6----3h5----6----3h5------------------------------------------|
E|-3-3/1-0--00---00-----00---00-----00-(3)--Squealer-------------------------|
            ..   ..     ..   ..     ..
Verse Riff
Pre Chorus 
Chorus

Before the break down you use a 7th fret high e string Natural 
harmonic using the whammy bar going In at a medium speed then picking the whammy
back up and in-out-in-out.

Break Down - Okay if your looking for anything wrong in this tab i think 
your gonna find it, i'm not good at writing down a pattern of zeros but the other
tabs in between the zeros are 100% correct, so try to hear the song and you will get the pattern 
of the zeros for sure :/
e|---------------------------------------------------------------------------|
B|---------------------------------------------------------------------------|
G|---------------------------------------------------------------------------|
D|---------------------------------------------------------------------------|
A|-000-0-00-0-0-0-000-0-0-0-00-0-0-0-000-0-0-0-------3-----------------------|
E|-000-0-00-0-0-0-000-0-0-0-00-0-0-0-000-0-0-0-6-5-3---3-1b~-----------------|
   ... . .. . . . ... . . . .. . . . ... . . .
e|---------------------------------------------------------------------------|
B|---------------------------------------------------------------------------|
G|---------------------------------------------------------------------------|
D|---------------------------------------------------------------------------|
A|-000-0-00-0-0-0-000-0-0-0-00-0-0-0-000-0-0-0-------------------------------|
E|-000-0-00-0-0-0-000-0-0-0-00-0-0-0-000-0-0-0-3p0-3-6-5-1b~-----------------|
   ... . .. . . . ... . . . .. . . . ... . . .
e|---------------------------------------------------------------------------|
B|---------------------------------------------------------------------------|
G|---------------------------------------------------------------------------|
D|---------------------------------------------------------------------------|
A|-000-0-00-0-0-0-000-0-0-0-00-0-0-0-000-0-0-0------3------------------------|
E|-000-0-00-0-0-0-000-0-0-0-00-0-0-0-000-0-0-0-6-5-3---3-1b------------------|
   ... . .. . . . ... . . . .. . . . ... . . .
e|---------------------------------------------------------------------------|
B|---------------------------------------------------------------------------|
G|---------------------------------------------------------------------------|
D|---------------------------------------------------------------------------|
A|-000-0-00-0-0-0-000-0-0-0-00-0-0-0-000-0-0-0-------------------------------|
E|-000-0-00-0-0-0-000-0-0-0-00-0-0-0-000-0-0-0-6-3p0-3-6-5-1b~---------------|
   ... . .. . . . ... . . . .. . . . ... . . .
Solo- Now this is the part I spent on a lot just to see if it was perfect and 
I believe this is perfection.

First part of this solo are taps as u can see, with the 2nd hand on the 18
and using 3 fingers from your first hand on the other 3 and then you double the
18 the 2nd time so (one 18 then two 18's) repeatedly.
e|---------------------------------------------------------------------------|
B|-(h18p15p13p10-h18p15h18p15p13p10)-X2--maybe-3-----------------------------|
G|---------------------------------------------------------------------------|
D|---------------------------------------------------------------------------|
A|---------------------------------------------------------------------------|
E|---------------------------------------------------------------------------|

2nd pat of solo the 20b~is kinda a series of bends with a kinda vibrato
thing with just one pick.

e|-h13p10p7--------h13p10p7----------h17p13p9----------h17p13p9--------------|
B|---------------------------------------------------------------------------|
G|---------h13p10p7---------h13p10p7----------h17p13p9----------h17p13p9-----|
D|---------------------------------------------------------------------------|
A|---------------------------------------------------------------------------|
E|---------------------------------------------------------------------------|
                    PART 3 
e|-h19p16p13-20b--|-20-22-20-17----17-20-22-20-17----17-20-22-20-17-20-22-20-|
B|----------------|-------------21----------------21-------------------------|
G|----------------|----------------------------------------------------------|
D|----------------|----------------------------------------------------------|
A|----------------|----------------------------------------------------------|
E|----------------|----------------------------------------------------------|

e|-17----17-20-22-20-17----17------|-----------------------------------------------|
B|----21----------------21----21b~-|-----------------------------------------------|
G|---------------------------------|-----10----10h12-13-12b~--10-12-10----10-------|
D|---------------------------------|-/12----12-------------------------12----12b~/-|
A|---------------------------------|-----------------------------------------------|
E|---------------------------------|-----------------------------------------------|

Now here we go everyones favorite part sweep picking ._. Here we go!
e|----------------12-15p12---------------------------------------------------|
B|-------------13----------13-------------------------13-17b~/---------------|
G|----------14----------------14-------------------14------------------------|
D|-------14----------------------14-------------15---------------------------|
A|-12h15----------------------------15-12/---17------------------------------|
E|---------------------------------------------------------------------------|
And you done with the solo

Chorus Again

Then this thing
e|-15p10----10----------10-15p10----10----------10-15p10----10---------------|
B|-------13----13----13----------13----13----13----------13----13----13------|
G|----------------14----------------------14----------------------14----14---|
D|---------------------------------------------------------------------------|
A|---------------------------------------------------------------------------|
E|---------------------------------------------------------------------------|

e|-15p10----10----------10-15p10----10-------------15p10----10---------------|
B|-------13----13----13----------13----13----13----------13----13----13------|
G|----------------14----------------------14----14----------------14----14---|
D|---------------------------------------------------------------------------|
A|---------------------------------------------------------------------------|
E|---------------------------------------------------------------------------|

e|-15p10----10---------------------------------------------------------------|
B|-------13----13----13-----------------------------10-----------------------|
G|----------------14----14-12-14-12/-10-12-10-14-----------------------------|
D|-----------------------------------------------13--------------------------|
A|---------------------------------------------------------------------------|
E|---------------------------------------------------------------------------|

Break Down Again

Then Here is you Outro - This note (3) is a squeal 
e|---------------------------------------------------------------------------|
B|---------------------------------------------------------------------------|
G|---------------------------------------------------------------------------|
D|-------------------------------------------------------0~------------------|
A|-0-0-0-3p0-3-6-5-3-3-----6-5---------------3-0-3-6-5-3-0~------------------|
E|-0-0-0-3p0-3-6-5-3-3-0-3-6-5-(3)-0-3-6-5-3-3-0-3-6-5-3-0~------------------|
   . .                 . .
The End :D There is the full tab please rate and comment, like i said before this is my first tab 
and my band and myself are working on covering this song so I will be posting a link to that 
when we do :D 
Thank You and I hope you all enjoyed :)

            
            
Suggest correction
Creating personal tab
Creating personal tab
You can edit any tab online and save it as your Personal.

You can edit, replace or remove any tab part or add personal notes – all changes will be seen only by you.

Personal tabs can be accessed anytime from any device, even offline.
Learn more »
comments
print report bad tab
1 comment total.
+1 reply
Audible Warfare 806 Nov 03, 2014 07:54 PM

Verse Riff is wrong.

guest
You may want to rate the tab now too:
select rating
Wanna post a correction for this tab? Suggest correction