Oops, an error
Loading. Please wait.
We have an official Perfect Weapon tab made by UG professional guitarists. Check out the tab »
×
969 views 1 this week
no commentswrite comment
1 2 3 4 5
3 more votes to show rating
add to favorites
×
Save as Personal and add changes to this tab that will be seen only by you. Learn more ›
×
You can save this tab as Personal to edit and correct it or add notes. All changes will be seen only by you. Learn more »
launch autoscroll
font size
0
reset
how to read this tab
guitar tuner
backing track
0:00
0:00
edit
Autoscroll
slow
fast
+/-
esc
set tempo
stop
Author
Song: Perfect Weapon
Artist: Black Veil Brides
Album: We Stitch These Wounds

Intro
e|----------------------------------|
B|----------------------------------|
G|----------------------------------|
D|-------7--------------2---5-5-5-3-|
A|-----------3h5--------------------|
E|---0-0---0-----0-3b-0---0---------|
     * *   *     *    *   *
e|----------------------------------|
B|----------------------------------|
G|----------------------------------|
D|-------7--------------2---5-5-5-5-|
A|-----------3h5------------3-3-3-3-|
E|---0-0---0-----0-3b-0---0---------|
     * *   *     *    *   *
e|----------------------------------|
B|----------------------------------|
G|----------------------------------|
D|-----7-------------7---10-10-10-8-|
A|-----------3----------------------|
E|-8-8---8-8---8-8-8---8------------|
   * *   * *   * * *   *
e|-----------------------------|
B|-----------------------------|
G|-----------------------------|
D|-----7-------------------8-7-|
A|-----------3-----------------|
E|-8-8---8-8---8-8-7-5-3-5-----|
   * *   * *   * *
Verse
e|---------------------------|
B|---------------------------|
G|---------------------------|
D|-0~~---3~~---/10---10-8----|
A|-0~~---3~~---/8---------9~-|
E|-0~~---3~~---/7------------|

e|-----------------------------------------------------------------|
B|-----------------------------------------------------------------|
G|-----------------------------------------------------------------|
D|-0~-----------0~--------7-5---5--3~-----------3~---3---5---7---7-|
A|-0~-----------0~------------7----3~-----------3~-----------------|
E|-0~-0-0-000-0-0~--0-0-0----------3~-3-3-333-3-3~-3---3---3---3---|
      * * *** *     * * *             * * *** *    
e|------------------------------------------------------------------|
B|------------------------------------------------------------------|
G|------------------------------------------------------------------|
D|-8~-----------8~---------------7~-----------7~--7-------7---7-10~-|
A|-8~-----------8~---10-12-10-8--7~-----------7~----8-7-8---8-------|
E|-8~-8-8-888-8-8~-8-------------7~-7-7-777-7-7~--------------------|
      * * *** *                     * * *** *       
Pre Chorus
e|---------------------------------------------------------------|
B|---------------------------------------------------------------|
G|---------------7p5p3-------------------------------------------|
D|-33333333-5555-------7p5p3-0-------6p0-5p0-2h3---------6-5-0p2-|x2
A|-11111111-3333-------------------------------------------------|
E|-----------------------------0-0-0-------------0-000-0---------|
                               * * *             * *** *  
e|----------------------------------|
B|----------------------------------|
G|--------------------7-9-7-9b-5-7~-|
D|--8-8---3-3---5-5-----------------|
A|--8-8---3-3---5-5-----------------|
E|--8-8---3-3---5-5-----------------|
 
Chorus x2
e|-------------------------------------------------------------------|   
B|-------------------------------------------------------------------|  
G|-------------------------------------------------------------------|  
D|-101010101010101010101010101010—10101010101010101010101010--x--10\-|  
A|--8-8-8-8-8-8-8-8-8-8-8-8-8-8-8--8-8-8-8-8-8-8-8-8-8-8-8-8--x--10\-|  
E|--8-8-8-8-8-8-8-8-8-8-8-8-8-8-8--7-7-7-7-7-7-7-7-7-7-7-7-7--x--10\-|  
                                                                         
e|----------------------------------|                                   
B|----------------------------------|                                   
G|----------------------------------|                                   
D|-------7--------------2---5-5-5-3-|                                   
A|-----------3h5--------------------|                                   
E|---0-0---0-----0-3b-0---0---------|                                   
     * *   *     *    *   *                                                  
e|----------------------------------|
B|----------------------------------|
G|----------------------------------|
D|-------7--------------2---5-5-5-5-|
A|-----------3h5------------3-3-3-3-|
E|---0-0---0-----0-3b-0---0---------|
     * *   *     *    *   *
Verse II
e|---------------------------|
B|---------------------------|
G|---------------------------|
D|-0~~---3~~---/10---10-8----|
A|-0~~---3~~---/8---------9~-|
E|-0~~---3~~---/7------------|

e|-----------------------------------------------------------------|
B|-----------------------------------------------------------------|
G|-----------------------------------------------------------------|
D|-0~-----------0~--------7-5---5--3~-----------3~---3---5---7---7-|
A|-0~-----------0~------------7----3~-----------3~-----------------|
E|-0~-0-0-000-0-0~--0-0-0----------3~-3-3-333-3-3~-3---3---3---3---|
      * * *** *     * * *             * * *** *    
e|------------------------------------------------------------------|
B|------------------------------------------------------------------|
G|------------------------------------------------------------------|
D|-8~-----------8~---------------7~-----------7~--7-------7---7-10~-|
A|-8~-----------8~---10-12-10-8--7~-----------7~----8-7-8---8-------|
E|-8~-8-8-888-8-8~-8-------------7~-7-7-777-7-7~--------------------|
      * * *** *                     * * *** *       
Pre Chorus
e|---------------------------------------------------------------|
B|---------------------------------------------------------------|
G|---------------7p5p3-------------------------------------------|
D|-33333333-5555-------7p5p3-0-------6p0-5p0-2h3---------6-5-0p2-|x2
A|-11111111-3333-------------------------------------------------|
E|-----------------------------0-0-0-------------0-000-0---------|
                               * * *             * *** *  
e|-------------------|
B|-------------------|
G|-------------------|
D|--8-8---3-3---5-5--|
A|--8-8---3-3---5-5--|
E|--8-8---3-3---5-5--|
 
Chorus x2
e|-------------------------------------------------------------------|   
B|-------------------------------------------------------------------|  
G|-------------------------------------------------------------------|  
D|-101010101010101010101010101010—10101010101010101010101010--x--10\-|  
A|--8-8-8-8-8-8-8-8-8-8-8-8-8-8-8--8-8-8-8-8-8-8-8-8-8-8-8-8--x--10\-|  
E|--8-8-8-8-8-8-8-8-8-8-8-8-8-8-8--7-7-7-7-7-7-7-7-7-7-7-7-7--x--10\-|  
                                                                         
e|----------------------------------|                                   
B|----------------------------------|                                   
G|----------------------------------|                                   
D|-------7--------------2---5-5-5-3-|                                   
A|-----------3h5--------------------|                                   
E|---0-0---0-----0-3b-0---0---------|                                   
     * *   *     *    *   *                                                  
e|----------------------------------|
B|----------------------------------|
G|----------------------------------|
D|-------7--------------2---5-5-5-5-|
A|-----------3h5------------3-3-3-3-|
E|---0-0---0-----0-3b-0---0---------|
     * *   *     *    *   *

Pre Breakdown 
e|-------------------------------------------------------------------------|
B|-------------------------------------------------------------------------|
G|-------------------------------------------------------------------------|
D|-------------------------------------------------------------------------|
A|-------------------------------------------------------------------------|
E|--0-0000000-0-000000-0-000000-12\---0-0000000-0-000000-0-0000000-8-5-7-3-|

 |----------------x3--------------------|
e|--------------------------------------|--------------------------------|
B|--------------------------------------|--------------------------------|
G|--------------------------------------|--------------------------------|
D|--------------------------------------|--------------------------------|x2
A|--------------------------------------|-----------------------------/7-|
E|--0-0000000-0-000000-0-000000-8-5-7-3-|-3-3333333-3-333333-3-333333----|

Breakdown
e|-------------------------------------------------------------------------|
B|-------------------------------------------------------------------------|
G|-------------------------------------------7-----10-8-7--------9-------9-|
D|------------------------------------5--7-7---7-7---------7-7-7---7-7-7---|
A|--5---------5---5-8--7--------7---7--------------------------------------|
E|-----0-0-0----0---------7-7-7---7----------------------------------------|
       * * *    *         * * *   *      * *   * *         * * *   * * *    
e|--------------------------------------------------------------------------|
B|--------------------------------------------------------------------------|
G|-99999999777777776666666677777777-----7-----10-8-7--------10----9----9----|
D|----------------------------------7-7---7-7---------11-11----11---11---11-|
A|--------------------------------------------------------------------------|
E|--------------------------------------------------------------------------|
                                    * *   * *          *  *     *    *    *  
E|-13----------13----13-17--15----------15----15-20-|
B|----15-15-15----15-----------17-17-17----17-------|
G|--------------------------------------------------|
D|--------------------------------------------------|
A|--------------------------------------------------|
E|--------------------------------------------------|
 
e|----------------------------------17h18p17p15-----------15----|
B|-----------------------------------------------18-17-18----17-|
G|--------------------------------------------------------------|
D|------7-------3-------5-------2-------------------------------|
A|---7--7----3--3----5--5----2--2-------------------------------|
E|---7--7----3--3----5--5----2--2-------------------------------|
     *       *       *       *  
Solo
e|--15-13------13----------------------------|
B|--------14------15-13-15-13------13--------|
G|----------------------------14------14-12--|
D|-------------------------------------------|
A|-------------------------------------------|
E|-------------------------------------------|

e|---------------------------------------------|
B|---------------------------------------------|
G|--14-12------12------------------------------|
D|--------15------15-12---15-12------12--------|
A|------------------------------14------14-12--|
E|---------------------------------------------|

e|----------------------------------------------------------------------|
B|-------------------------------------------10-------------------------|
G|----------------------10------10-12-10-12------12--10-12-10------10^--|
D|---------10----10-12------12---------------------------------12-------|
A|--10-12-----12--------------------------------------------------------|
E|----------------------------------------------------------------------|

e|-----------------------------------------------------------------|
B|-18p15p13h15--18p15h18p15p13h15--18p15h18p15p13h15--18p15p13h15--|
G|-----------------------------------------------------------------|
D|-----------------------------------------------------------------|
A|-----------------------------------------------------------------|
E|-----------------------------------------------------------------|
    T            T     T            T     T            T  


e|-------------------------------------------------------------------|
B|-18p15p13h15-18p15p13h15-18p15p13h15-18p15p13h15-18p15h18p15p13h15-|
G|-------------------------------------------------------------------|
D|-------------------------------------------------------------------|
A|-------------------------------------------------------------------|
E|-------------------------------------------------------------------|
    T           T           T           T           T     T      

e|-----------------121212131313151515131313151515-15b--15b--15br--12-----|
B|--18p15h18p15p13---------------------------------------------------15b-|
G|-----------------------------------------------------------------------|
D|-----------------------------------------------------------------------|
A|-----------------------------------------------------------------------|
E|-----------------------------------------------------------------------|
     T
e|--13-15-13-15-----15--------------------------------|
B|---------------17-----17-15-17-15-13-15-13-13----13-|
G|----------------------------------------------15----|
D|----------------------------------------------------|
A|----------------------------------------------------|
E|----------------------------------------------------|

e|----------------------------------------------------------------------|
B|----------------------------------------------------------------------|
G|--15-14-15-14-12-14-12-----12-------------------------/12-12-12~------|
D|------------------------15----15-14-15-14-12-12~----------------------|
A|----------------------------------------------------------------------|
E|----------------------------------------------------------------------|
 
e|---------------------------------------10-------------10--------------|
B|--------------------------------------------10---13---13b-------------|
G|--7h9p7TR----9h10p9TR----10h12p10TR-----------------------------------|
D|----------------------------------------------------------------------|
A|----------------------------------------------------------------------|
E|----------------------------------------------------------------------|

After Solo
e|------------------------------------|
B|--------------------------8-8-8-/10-|
G|-7-7-10-7-9h10-7-7--7-9-7-----------|
D|------------------------------------|
A|------------------------------------|
E|------------------------------------|
   * *     *       *     *   *

e|--------------------------------------------------------------------------------------------|
B|-------10----8h10-----------10----11-11-11-10--------10----8h10-----------10----11-11-11-13-|
G|-10-10----10------10-10--10----10--------------10-10----10------10-10--10----10-------------|
D|--------------------------------------------------------------------------------------------|
A|--------------------------------------------------------------------------------------------|
E|--------------------------------------------------------------------------------------------|
   * *      *     *      *     *             *  *    *      *     *     *

Chorus x2
e|-------------------------------------------------------------------|   
B|-------------------------------------------------------------------|  
G|-------------------------------------------------------------------|  
D|-101010101010101010101010101010—10101010101010101010101010--x--10\-|  
A|--8-8-8-8-8-8-8-8-8-8-8-8-8-8-8--8-8-8-8-8-8-8-8-8-8-8-8-8--x--10\-|  
E|--8-8-8-8-8-8-8-8-8-8-8-8-8-8-8--7-7-7-7-7-7-7-7-7-7-7-7-7--x--10\-|  
                                                                   
e|----------------------------------|                                   
B|----------------------------------|                                   
G|----------------------------------|                                   
D|-------7--------------2---5-5-5-3-|                                   
A|-----------3h5--------------------|                                   
E|---0-0---0-----0-3b-0---0---------|                                   
     * *   *     *    *   *                                                  
e|----------------------------------|
B|----------------------------------|
G|----------------------------------|
D|-------7--------------2---5-5-5-5-|
A|-----------3h5------------3-3-3-3-|
E|---0-0---0-----0-3b-0---0---------|
     * *   *     *    *   *
Final
e|--------------------------------------|
B|--------------------------------------|
G|--------------------------------------|
D|--------------------------------------|x3
A|--------------------------------------|
E|--0-0000000-0-000000-0-000000-8-5-7-3-|

e|-------------------------------------------|
B|-------------------------------------------|
G|-------------------------------------------|
D|-----------------------------------------0-|
A|--------------------------------8-7-5-3--0-|
E|-0--0-0-3--3-3-5--5-5-8--8-8-7~----------0-|


            
            
Suggest correction
Creating personal tab
Creating personal tab
You can edit any tab online and save it as your Personal.

You can edit, replace or remove any tab part or add personal notes – all changes will be seen only by you.

Personal tabs can be accessed anytime from any device, even offline.
Learn more »
Give kudos to tab author, rate the tab!
1 2 3 4 5
comments
print report bad tab
guest
You may want to rate the tab now too:
select rating
Wanna post a correction for this tab? Suggest correction