Oops, an error
Loading. Please wait.
41,076 views 6 this week
2 commentsread comments
1 2 3 4 5
x 8
add to favorites
×
Save as Personal and add changes to this tab that will be seen only by you. Learn more ›
×
You can save this tab as Personal to edit and correct it or add notes. All changes will be seen only by you. Learn more »
launch autoscroll
font size
0
reset
how to read this tab
guitar tuner
backing track
0:00
0:00
edit
Autoscroll
slow
fast
+/-
esc
set tempo
stop
D#------------------------------------------------|
A#------------------------------------------------|
F#------------------------------------------------|
C#-----7--------------------10-10-10-10-----------|
G#----------7--8------------8--8--8--8------------|
C#-0-0---0--------3-2-3---------------------------|

D#------------------------------------------------|
A#------------------------------------------------|
F#------------------------------------------------|
C#-----7------------------10-10-10-8--------------|
G#------------7--8--------------------------------|
C#-8-8---8---------8-8-9--------------------------|

D#------------------------------------------------|
A#------------------------------------------------|
F#------------------------------------------------|
C#-----7------------------------------------------|
G#-------------7--8-------------------------------|
C#-8-8---8----------7-5-3-5-8-7-------------------| 2x



Verse 
D#------------------------------------------------|
A#------------------------------------------------|
F#------------------------------------------------|
C#-0~------3~-------8~---------7~--5~-------------|
G#-0~------3~-------8~-----------------7~---------|
C#-0~------3~-------8~----------------------------|

D#------------------------------------------------|
A#------------------------------------------------|
F#------------------------------------------------|
C#-0---00---00000000---00000000--7---5-----5------|	
G#-0---00---00000000---00000000----7--------------| 
C#-0---00---00000000---00000000-------------------| 
 PM---------------------------| Fast Strumming

D#------------------------------------------------|
A#------------------------------------------------|
F#------------------------------------------------|
C#-3---3-3---3-3-3-3-3-3-3-3----2-x-3 x-5x--------|
G#-3---3-3---3-3-3-3-3-3-3-3----------------------|			 
C#-3---3-3---3-3-3-3-3-3-3-3----------------------|
  PM----------------------| Fast Strumming

D#------------------------------------------------|
A#------------------------------------------------|
F#------------------------------------------------|
C#-8---8-8---8-8-8-8-8-8-8-8----------------------|
G#-8---8-8---8-8-8-8-8-8-8-8---7-x-8-x-5-7--------|			 
C#-8---8-8---8-8-8-8-8-8-8-8----------------------|
  PM---------------------| Fast Strumming

D#------------------------------------------------|
A#------------------------------------------------|
F#------------------------------------------------|
C#-0---0-0---0-0-0-0-0-0-0-0---5---------5---5-7--|
G#-8---8-8---8-8-8-8-8-8-8-8------8-7-8---7-------|
C#-0---0-0---0-0-0-0-0-0-0-0----------------------|
  PM---------------------| Fast Strumming


Pre-Chorus
D#-------------------------------------------------|
A#-------------------------------------------------|
F#------------------------------------------10p8p7-|
C#-8---------------10-10-10-10-10-10-10-10--10p8p--|	
G#-8--8-5-7-4-3-5--10-10-10-10-10-10-10-10---------|
C#-8---------------10-10-10-10-10-10-10-10---------|

D#-------------------------------------------------|
A#-------------------------------------------------|
F#-------------------------------------------------|
C#-0-0--7----------------0-0-0-0---7---------------|
G#-0-0----8-10-8-7-8-----0-0-0-0-----10-7-8--------|
C#-0-0-------------------0-0-0-0-------------------|
   PM			PM-----|

D#-------------------------------------------------|
A#-------------------------------------------------|
F#---------------------------9-10-9-12-9-10--------|
C#-8-8--------3-3-------5-5------------------------|		
G#-8-8--------3-3-------5-5------------------------|			 
C#-8-8--------3-3-------5-5------------------------|



Chorus
D#-------------------------------------------------|
A#-------------------------------------------------|
F#-------------------------------------------------|
C#-8888888888888888--77777777--10-10-10-10-x-10----|	
G#-8888888888888888--77777777--10-10-10-10-x-10----|		
C#-8888888888888888--77777777--10-10-10-10-x-10----|

D#-------------------------------------------------|
A#-------------------------------------------------|
F#-------------------------------------------------|
C#---------------------5-5-5-----------------------|
G#-----8------7--8-----------9---------------------|
C#-0-0---0 -------3-2-3----------------------------|

D#-------------------------------------------------|
A#-------------------------------------------------|
F#-------------------------------------------------|
C#----------------------10-10-10-10----------------|
G#-----8------7--8------8--8--8--8-----------------|
C#-0-0---0--------3-2-3----------------------------| Play The Chorus (2x)



Verse 2
D#-------------------------------------------------|
A#-------------------------------------------------|
F#-------------------------------------------------|
C#-0~--------3~----------8~--7~--5~----------------|
G#-0~--------3~----------8~----------7~------------|
C#-0~--------3~----------8~------------------------|

D#-------------------------------------------------|
A#-------------------------------------------------|
F#-------------------------------------------------|
C#-0--00---000000---0000000000-----7-5---5---------|
G#-0--00---000000---0000000000---------7-----------|
C#-0--00---000000---0000000000---------------------| 
 PM---------------------------| Fast Strumming

D#-------------------------------------------------|
A#-------------------------------------------------|
F#-------------------------------------------------|
C#-3--33------33333333------2-x-3 x-5x-------------|		
G#-3--33------33333333-----------------------------|			 
C#-3--33------33333333-----------------------------|
 PM-------------------| Fast Strumming

D#-------------------------------------------------|
A#-------------------------------------------------|
F#-------------------------------------------------|
C#-8--88----------88888888-------------------------|
G#-8--88----------88888888--7-x-8-5-7--------------|			 
C#-8--88----------88888888-------------------------|
  PM---------------------| Fast Strumming

D#-------------------------------------------------|
A#-------------------------------------------------|
F#-------------------------------------------------|
C#-0--0-0---0-0-0-0-0-0-0-0--5---------5---5-7-----|
G#-8--8-8---8-8-8-8-8-8-8-8-----8-7-8----7---------|
C#-0--0-0---0-0-0-0-0-0-0-0------------------------|
  PM-----------------------| Fast Strumming


Pre-Chorus
D#-------------------------------------------------|
A#-------------------------------------------------|
F#------------------------------------------10p8p7-|
C#-8---------------10-10-10-10-10-10-10-10--10p8p--|	
G#-8--8-5-7-4-3-5--10-10-10-10-10-10-10-10---------|
C#-8---------------10-10-10-10-10-10-10-10---------|

D#-------------------------------------------------|
A#-------------------------------------------------|
F#-------------------------------------------------|
C#-0-0--7--------------------0-0-0-0---7-----------|			
G#-0-0-----8-10-8-7-8--------0-0-0-0-----10-7-8----|			 
C#-0-0-----------------------0-0-0-0---------------|
   PM			    PM-----|

D#-------------------------------------------------|
A#-------------------------------------------------|
F#---------------------------------9-10-9-12-9-10--| 
C#-8-8--------3-3-------5-5------------------------|			
G#-8-8--------3-3-------5-5------------------------|			 
C#-8-8--------3-3-------5-5------------------------|


Chorus
D#------------------------------------------------|
A#------------------------------------------------|
F#------------------------------------------------|
C#-8888888888888888--77777777---10-10-10-10-x-10--|	
G#-8888888888888888--77777777---10-10-10-10-x-10--|		
C#-8888888888888888--77777777---10-10-10-10-x-10--|

D#------------------------------------------------|
A#------------------------------------------------|
F#------------------------------------------------|
C#------------------------5-5-5-------------------|
G#------8------7--8--------------9----------------|
C#--0-0---0---------3-2-3-------------------------|


D#------------------------------------------------|
A#------------------------------------------------|
F#------------------------------------------------|
C#---------------------10-10-10-10----------------|
G#------8------7--8----8--8--8--8-----------------|
C#--0-0---0--------3-2----------------------------| Play The Chorus(2x)



Bridge
D#------------------------------------------------|
A#------------------------------------------------|
F#------------------------------------------------|
C#--0-0----0-0-0----0-0----0-0-0------------------|
G#--0-0----0-0-0----0-0----0-0-0------------------|
C#--0-0----0-0 0----0-0----0-0-0------------------|(4X) 

D#------------------------------------------------|
A#------------------------------------------------|
F#------------------------------------------------|
C#--0-0----0-0-0----0-0----0-0-0------------------|
G#--0-0----0-0-0----0-0----0-0-0------------------|
C#--0-0----0-0 0----0-0----0-0-0------------------|(3x)

D#------------------------------------------------|
A#------------------------------------------------|
F#------------------------------------------------|
C#------------------------------------------------|
G#------------------------------------------------|
C#--8-5-7-4---------------------------------------|

D#------------------------------------------------|
A#------------------------------------------------|
F#------------------------------------------------|
C#--0-0----0-0-0----0-0----0-0-0------------------|
G#--0-0----0-0-0----0-0----0-0-0------------------|
C#--0-0----0-0 0----0-0----0-0-0------------------|(3x)

D#------------------------------------------------|
A#------------------------------------------------|
F#------------------------------------------------|
C#------------------------------------------------|
G#------5-8---------------------------------------|
C#--7-4-------------------------------------------|

D#------------------------------------------------|
A#------------------------------------------------|
F#------------------------------------------------|
C#--0-0----0-0-0----0-0----0-0-0------------------|
G#--0-0----0-0-0----0-0----0-0-0------------------|
C#--0-0----0-0 0----0-0----0-0-0------------------|(3x)

D#------------------------------------------------|
A#------------------------------------------------|
F#------------------------------------------------|
C#--3-3----3-3-3----3-3----3-3-3----5Vibrato~~~~~-|
G#--3-3----3-3-3----3-3----3-3-3------------------|
C#--3-3----3-3 3----3-3----3-3-3------------------|

D#------------------------------------------------|
A#------------------------------------------------|
F#------------------------------------------------|
C#------------------------------------------------|
G#------------------------------------------------|
C#--8-5-7-4---------------------------------------|

D#------------------------------------------------|
A#------------------------------------------------|
F#------------------------------------------------|
C#--0-0----0-0-0----0-0----0-0-0------------------|
G#--0-0----0-0-0----0-0----0-0-0------------------|
C#--0-0----0-0 0----0-0----0-0-0------------------|(4X)

D#------------------------------------------------|
A#------------------------------------------------|
F#------------------------------------------------|
C#--0-0----0-0-0----0-0----0-0-0------------------|
G#--0-0----0-0-0----0-0----0-0-0------------------|
C#--0-0----0-0 0----0-0----0-0-0------------------|(3x)

D#------------------------------------------------|
A#------------------------------------------------|
F#------------------------------------------------|
C#------------------------------------------------|
G#------------------------------------------------|
C#--8-5-7-4---------------------------------------|


D#------------------------------------------------|
A#------------------------------------------------|
F#------------------------------------------------|
C#--0-0----0-0-0----0-0----0-0-0------------------|
G#--0-0----0-0-0----0-0----0-0-0------------------|
C#--0-0----0-0 0----0-0----0-0-0------------------|(3x)

D#------------------------------------------------|
A#------------------------------------------------|
F#------------------------------------------------|
C#------------------------------------------------|
G#------5-8---------------------------------------|
C#--7-4-------------------------------------------|


D#------------------------------------------------|
A#------------------------------------------------|
F#------------------------------------------------|
C#--0-0----0-0-0----0-0----0-0-0------------------|
G#--0-0----0-0-0----0-0----0-0-0------------------|
C#--0-0----0-0 0----0-0----0-0-0------------------|(3x)

D#------------------------------------------------|
A#------------------------------------------------|
F#------------------------------------------------|
C#------------------------------------------------|
G#------------------------------------------------|
C#--8-5-7-4---------------------------------------|

D#------------------------------------------------|
A#------------------------------------------------|
F#------------------------------------------------|
C#--3-3----3-3-3----3-3----3-3-3----5Vibrato~~~~~-|
G#--3-3----3-3-3----3-3----3-3-3------------------|
C#--3-3----3-3 3----3-3----3-3-3------------------|



Pre-Solo?
D#--------------------------------------------------------------------------|
A#--------------------------------------------------------------------------|
F#------------7-7-7-h10-9-9-9-9h12-10-10-10-10-7-7-7-7----------------------|
C#-----------------------------------------------------11-11-11-11--7-7-7-7-|
G#-555h8777h10--------------------------------------------------------------|
C#--------------------------------------------------------------------------|

D#--------------------------------------------------------------------------|
A#--------------------------------------------------------------------------|
F#-7-7-7h10-9--9-9-9h12--19-19-19h21-20--20-20-20h21------------------------|
C#----------------------------------------------------------x-7-x-3-x-5-x-3-|
G#----------------------------------------------------------x-7-x-3-x-5-x-3-|
C#----------------------------------------------------------x-7-x-3-x-5-x-3-|



Solo
D#-------------------------------------------17h18p17-15-------------15-----|
A#----------------------------------------------------------18p17p18----17--|
F#--------------------------------------------------------------------------|
C#--------------------------------------------------------------------------|
G#--------------------------------------------------------------------------|
C#--------------------------------------------------------------------------|

D#----15-13--13-------------------------------------------------------------|
A#----------------15--15-13--15-13--13--------------------------------------|
F#---------------------------------------14--14-12---14-12-10----12-10------|
C#-----------------------------------------------------------------------12-|
G#--------------------------------------------------------------------------|
C#--------------------------------------------------------------------------|

D#--------------------------------------------------------------------------|
A#--------------------------------------------------------------------------|
F#-----------------------------------------------10-------------------------|
C#------------------------------------------------------12--10--12-10-------|
G#---------------------------------------------------------------------12---|
C#--------------------------------------------------------------------------|

D#--------------------------------------------------------------------------|
A#---------------------------------------------10---------------------------|
F#---------------------------10--10---12p10p12----12-10-12-10---10----------|
C#-----10---12p10p12----12-----------------------------------------12-------|
G#-12-----------------------------------------------------------------------|
C#--------------------------------------------------------------------------|

Variations of Taps (figure it out, by listening to the song)
D#-------------------------------------------------------------t13p10p8h10--|
A#--------------------------------------------------------------------------|
F#--------------------------------------------------------------------------|
C#--------------------------------------------------------------------------|
G#--------------------------------------------------------------------------|
C#--------------------------------------------------------------------------|

D#-121212--13131313--151515--131313---1515--17b-----17--15--13--------------|
A#----------------------------------------------------------------17b-15----|
F#--------------------------------------------------------------------------|
C#--------------------------------------------------------------------------|
G#--------------------------------------------------------------------------|
C#--------------------------------------------------------------------------|

D#-13h15-13h15---12h13p12-----10h11p10---10---------------------------------|
A#------------------------------------13---13--11p13p11----11---------------|
F#-------------------------------------------------------14--14---12-14-12--|
C#------------------------------------------------------------------------15|
G#--------------------------------------------------------------------------|
C#--------------------------------------------------------------------------|

D#--------------------------------------------------------------------------|
A#--------------------------------------------------------------------------|
F#-12---------------12-1212b~~~---------------------------------------------|
C#------15--14-12~~~--------------------------------------------------------|
G#--------------------------------------------------------------------------|
C#--------------------------------------------------------------------------|

A Bit of hammer ons (figure it out yourself)
D#--------------------------------------------------------------------------|
A#---------------------------------------/15b1315---------------------------|
F#-7h9p7--9--10--9h10p9--10-12--10h12p10---------17b------------------------|
C#--------------------------------------------------------------------------|
G#--------------------------------------------------------------------------|
C#--------------------------------------------------------------------------|

D#------------------------------------------------|
A#------------------------------------------------|
F#------------------------------------------------|
C#-8-8-8--9-10-7--7-7--12-12-12-10----------------|
G#-8-8-8------------------------------------------|
C#-8-8-8------------------------------------------|

D#------------------------------------------------|
A#------------------------------------------------|
F#------------------------------------------------|
C#-8-8-8--9-10-7--7-7--12-12-12-14----------------|
G#-8-8-8------------------------------------------|
C#-8-8-8------------------------------------------|

D#------------------------------------------------|
A#------------------------------------------------|
F#------------------------------------------------|
C#-8-8-8--9-10-7--7-7--12-12-12-10----------------|
G#-8-8-8------------------------------------------|
C#-8-8-8------------------------------------------|

D#------------------------------------------------|
A#------------------------------------------------|
F#------------------------------------------------|
C#-8-8-8--9-10-7--7-7--12-12-12-14----------------|
G#-8-8-8------------------------------------------|
C#-8-8-8------------------------------------------|



Chorus
D#------------------------------------------------|
A#------------------------------------------------|
F#------------------------------------------------|
C#-8888888888888888-7777777710-10-10-10-x-10------|	
G#-8888888888888888-7777777710-10-10-10-x-10------|		
C#-8888888888888888-7777777710-10-10-10-x-10------|

D#------------------------------------------------|
A#------------------------------------------------|
F#------------------------------------------------|
C#-------------------------5-5-5------------------|
G#------8------7--8---------------------9---------|
C#--0-0---0--------3-2-3--------------------------|

D#------------------------------------------------|
A#------------------------------------------------|
F#------------------------------------------------|
C#-----------------------------10-10-10-10--------|
G#------8------7--8------------8--8--8--8---------|
C#--0-0---0 -------3-2-3--------------------------| Play The Chorus(2x)



Outro
D#------------------------------------------------|
A#------------------------------------------------|
F#------------------------------------------------|
C#-0-0----0-0-0----0-0----0-0-0-------------------|
G#-0-0----0-0-0----0-0----0-0-0-------------------|
C#-0-0----0-0 0----0-0----0-0-0-------------------|(3x)

D#------------------------------------------------|
A#------------------------------------------------|
F#------------------------------------------------|
C#------------------------------------------------|
G#------------------------------------------------|
C#-8-5-7-4----------------------------------------|

D#------------------------------------------------|
A#------------------------------------------------|
F#------------------------------------------------|
C#-0-0----0-0-0----0-0----0-0-0-------------------|
G#-0-0----0-0-0----0-0----0-0-0-------------------|
C#-0-0----0-0 0----0-0----0-0-0-------------------|(3x)

D#------------------------------------------------|
A#------------------------------------------------|
F#------------------------------------------------|
C#------------------------------------------------|
G#------5-8---------------------------------------|
C#-7-4--------------------------------------------|

D#------------------------------------------------|
A#------------------------------------------------|
F#------------------------------------------------|
C#--0-0----0-0-0----0-0----0-0-0------------------|
G#--0-0----0-0-0----0-0----0-0-0------------------|
C#--0-0----0-0 0----0-0----0-0-0------------------|(3x)

D#------------------------------------------------|
A#------------------------------------------------|
F#------------------------------------------------|
C#------------------------------------------------|
G#------------------------------------------------|
C#--8-5-7-4---------------------------------------|

D#------------------------------------------------|
A#------------------------------------------------|
F#------------------------------------------------|
C#--0--0-0-0----0--0-0-0--------------------------|
G#--0--0-0-0----0--0-0-0--------------------------|
C#--0--0-0-0----0--0-0-0--------------------------|(3x)

D#------------------------------------------------|
A#------------------------------------------------|
F#------------------------------------------------|
C#--6-8-7----7-5—5---0----------------------------|
G#--6-8-7---------7--0----------------------------|
C#--6-8-7------------0----------------------------|


thats all folks [=

            
            
Suggest correction
Creating personal tab
Creating personal tab
You can edit any tab online and save it as your Personal.

You can edit, replace or remove any tab part or add personal notes – all changes will be seen only by you.

Personal tabs can be accessed anytime from any device, even offline.
Learn more »
comments
print report bad tab
2 comments total.
0 reply
keny21051995 271 Aug 02, 2010 11:01 AM

YOU ONLY COPY AND PASTE

I HAVE THIS SAME TAB

0 reply
Jay T 10 Jun 23, 2012 01:05 PM

The intro is off, I can tell you that right now.

guest
You may want to rate the tab now too:
select rating
Wanna post a correction for this tab? Suggest correction