Oops, an error
Loading. Please wait.

Revelation bass

version 1
version 1

Whole song

Interactive

577 views 1 this week
no commentswrite comment
1 2 3 4 5
2 more votes to show rating
add to favorites
×
Save as Personal and add changes to this tab that will be seen only by you. Learn more ›
×
You can save this tab as Personal to edit and correct it or add notes. All changes will be seen only by you. Learn more »
launch autoscroll
font size
0
reset
guitar tuner
edit
Autoscroll
slow
fast
+/-
esc
set tempo
stop
Intro 0:09
F#|-------------------------------------------------------------------------------------------------|
C#|-----------------------------------------------------------------3---2---0-------3h5p3---3-------|
G#|-----------------------------------------3-------3-h-5-----------------------0---------------1---|
C#|-3---0-0-0-0-3---0-0-0-0-3---0-------0-------0-----------0-0-0-0---------------------------------|
    1 e + a 2 e + a 3 e + a 4 e + a 1 e + a 2 e + a 3 e + a 4 e + a 1 e + a 2 e + a 3 e + a 4 e + a

F#|-----------------------------------------------------------------|
C#|-----------------------------------------------------------------|
G#|-----1-1-1---1-1-1---1---1---0-------0-0-0---0-------------------|
C#|-------------------------------------------------5---5---3---0---|
    1 e + a 2 e + a 3 e + a 4 e + a 1 e + a 2 e + a 3 e + a 4 e + a

0:16
F#|-----------------------------------------------------------------|
C#|---------------------------------2h3p2---0-------5---3---2-------|
G#|---------3-------3-h-5-----------------------0---------------1---|
C#|-----0-------0-----------0-0-0-0---------------------------------|
    1 e + a 2 e + a 3 e + a 4 e + a 1 e + a 2 e + a 3 e + a 4 e + a 

F#|-----------------------------------------------------------------|
C#|-----------------------------------------------------------------|
G#|-----1-1-1---1-1-1---1---1---1---1-----------3-------------------|
C#|-------------------------------------------------------------0---|
    1 e + a 2 e + a 3 e + a 4 e + a 1 e + a 2 e + a 3 e + a 4 e + a

Verse 0:23
F#|-----------------------------------------------------------------|
C#|-----------------------------------------------------------------|
G#|-----------------------------------------------------------------|
C#|---------0---------------------------------------------------0---|
    1 e + a 2 e + a 3 e + a 4 e + a 1 e + a 2 e + a 3 e + a 4 e + a

F#|-----------------------------------------------------------------|
C#|-----------------------------------------------------------------|
G#|---------------------------------7h8p7---5---0---10--8---7-------|
C#|---------0---------------------------------------------------0---|
    1 e + a 2 e + a 3 e + a 4 e + a 1 e + a 2 e + a 3 e + a 4 e + a

F#|-----------------------------------------------------------------|
C#|-----------------------------------------------------------------|
G#|-----------------------------------------------------------------|
C#|---------0-------------------------------------------------------|
    1 e + a 2 e + a 3 e + a 4 e + a 1 e + a 2 e + a 3 e + a 4 e + a

F#|-----------------------------------------------------------------|
C#|-------------------------------------------------5---3---2-------|
G#|-1-------1-----------------------3-------3-----------------------|
C#|-------------------------------------------------------------0---|
    1 e + a 2 e + a 3 e + a 4 e + a 1 e + a 2 e + a 3 e + a 4 e + a

0:34
F#|-----------------------------------------------------------------|
C#|-----------------------------------------------------------------|
G#|-----------------------------------------------------------------|
C#|---------0---0---0---0---0---0---0---0---0---0---0---0---0---0---|
    1 e + a 2 e + a 3 e + a 4 e + a 1 e + a 2 e + a 3 e + a 4 e + a

F#|-----------------------------------------------------------------|
C#|-----------------------------------------------------------------|
G#|---------------------------------7h8p7---5---0---10--8---7-------|
C#|---------0---0---0---0---0---0-------------------------------0---|
    1 e + a 2 e + a 3 e + a 4 e + a 1 e + a 2 e + a 3 e + a 4 e + a

F#|-----------------------------------------------------------------|
C#|-----------------------------------------------------------------|
G#|---------------------------------------------5---7---8---5-------|
C#|---------0---0---0---0---0---0---0---0---0-----------------------|
    1 e + a 2 e + a 3 e + a 4 e + a 1 e + a 2 e + a 3 e + a 4 e + a

F#|-----------------------------------------------------------------|
C#|-------------------------------------------------5---3---2-------|
G#|-1-------1-------1---1---3---1---3-------3-------------------1---|
C#|-----------------------------------------------------------------|
    1 e + a 2 e + a 3 e + a 4 e + a 1 e + a 2 e + a 3 e + a 4 e + a

Pre Chorus 0:46
F#|-----------------------------------------------------------------|
C#|-----------------------------------------------------------------|
G#|---------1---1---1---1---1---3-----------3---3---3---3---3---3---|
C#|-----------------------------------------------------------------|
    1 e + a 2 e + a 3 e + a 4 e + a 1 e + a 2 e + a 3 e + a 4 e + a

Chorus 0:49
F#|-----------------------------------------------------------------|
C#|-----------------------------------------------------------------|
G#|-5-5-5---5-5-5-3-3-3-3---3-3-3-1-1-1-1---1-1-1-1-3-3-3-3-3-3-3---|
C#|-----------------------------------------------------------------|
    1 + 2 + 3 + 4 + 1 + 2 + 3 + 4 + 1 + 2 + 3 + 4 + 1 + 2 + 3 + 4 + 

F#|-----------------------------------------------------------------|
C#|-----------------------------------------------------------------|
G#|-5-5-5---5-5-5-3-3-3-3---3-3-3-------------------1-1-1-3-3-3-3-3-|
C#|-------------------------------5-5-5-5---5-5-5-5-----------------|
    1 + 2 + 3 + 4 + 1 + 2 + 3 + 4 + 1 + 2 + 3 + 4 + 1 + 2 + 3 + 4 + 

F#|-------------------------------------------------------------------|
C#|-------------------------------------------------------10-8-7------|
G#|-5-5-5---5-5-5-5-3-3-3---3-3-3-3-1-1-1---1-1-1-1-3-3-3--------10-8-|
C#|-------------------------------------------------------------------|
    1 + 2 + 3 + 4 + 1 + 2 + 3 + 4 + 1 + 2 + 3 + 4 + 1 + 2 +  3 + 4  + 

F#|-----------------------------------------------------------------|
C#|-----------------------------------------------------------------|
G#|-1-1-1-1-1-1-1-1-1-1-1-1-1-1-1-5-3-3-3-3-3-3-3-3-----------------|
C#|-----------------------------------------------------------------|
    1 + 2 + 3 + 4 + 1 + 2 + 3 + 4 + 1 + 2 + 3 + 4 + 1 + 2 + 3 + 4 + 

Interlude 1:12
F#|------------------------------------------------------------------|
C#|o-----------------------------------------------------------------|
G#|o---------3-------3-h-5---\---\-----------------------------------|
C#|--0---0-------------------------------------------0---0-0-0-0-0-0-|
     1 e + a 2 e + a 3 e + a 4 e + a 1 e + a 2 e + a 3 e + a 4 e + a

F#|------------------------------------------------------------------|
C#|-----------------------------------------------------------------o|
G#|---------3-------3-h-5---\---\---1---------------3---------------o|
C#|-0---0------------------------------------------------------------|
    1 e + a 2 e + a 3 e + a 4 e + a 1 e + a 2 e + a 3 e + a 4 e + a

Verse 1:23
F#|-----------------------------------------------------------------|
C#|-------------------------------------------------------------7---|
G#|-----------------------------------------------------------------|
C#|-0---------------------------------------------------------------|
    1 e + a 2 e + a 3 e + a 4 e + a 1 e + a 2 e + a 3 e + a 4 e + a

F#|-----------------------------------------------------------------|
C#|-8-------------------------------7-------------------------------|
G#|-----------------------------------------------------------------|
C#|---------------------------------------------------------7---5---|
    1 e + a 2 e + a 3 e + a 4 e + a 1 e + a 2 e + a 3 e + a 4 e + a

F#|-----------------------------------------------------------------|
C#|---------------------------------2h3p2---0-------5---3---2---0---|
G#|---------3-------3-h-5-----------------------0-------------------|
C#|-0---0-------0-----------0---0-----------------------------------|
    1 e + a 2 e + a 3 e + a 4 e + a 1 e + a 2 e + a 3 e + a 4 e + a 

F#|-----------------------------------------------------------------|
C#|-----------------------------------------------------------------|
G#|-1---1---1---1---1---1---1---1---12--12--\--\--------------------|
C#|-------------------------------------------------10--\-----------|
    1 e + a 2 e + a 3 e + a 4 e + a 1 e + a 2 e + a 3 e + a 4 e + a

F#|-----------------------------------------------------------------|
C#|---------------------------------3---2---0-------3h5p3---2-------|
G#|---------3-------3-h-5-----------------------0---------------1-1-|
C#|-0---0-------0-----------0-0-0-0---------------------------------|
    1 e + a 2 e + a 3 e + a 4 e + a 1 e + a 2 e + a 3 e + a 4 e + a 

F#|-----------------------------------------------------------------|
C#|-----------------------------------------------------------------|
G#|-1---1-1-1---1-1-1---1---1---1---0---0-0-0---0-0-0---0-----------|
C#|---------------------------------------------------------5---3---|
    1 e + a 2 e + a 3 e + a 4 e + a 1 e + a 2 e + a 3 e + a 4 e + a

F#|-----------------------------------------------------------------|
C#|---------------------------------2h3p2---0-------5---3---2---0---|
G#|---------3-------3-h-5-----------------------0-------------------|
C#|-0---0-------0-----------0-0-0-0---------------------------------|
    1 e + a 2 e + a 3 e + a 4 e + a 1 e + a 2 e + a 3 e + a 4 e + a 

F#|-----------------------------------------------------------------|
C#|---------------------------------------/-8-------------/-10------|
G#|-1---1-1-1---1-1-1---1---1---1-----------------------------------|
C#|---------------------------------8-\-------------10-\------------|
    1 e + a 2 e + a 3 e + a 4 e + a 1 e + a 2 e + a 3 e + a 4 e + a

Pre Chorus 1:47
F#|-----------------------------------------------------------------|
C#|-----------------------------------------------------------------|
G#|-1---1---1---1---1---1---1---1---3---3---3---3---3---3---3---3---|
C#|-----------------------------------------------------------------|
    1 e + a 2 e + a 3 e + a 4 e + a 1 e + a 2 e + a 3 e + a 4 e + a

Chorus 1:50
F#|-----------------------------------------------------------------|
C#|-----------------------------------------------------------------|
G#|-5-5-5---5-5-5-3-3-3-3---3-3-3-1-1-1-1---1-1-1-1-3-3-3-3-3-3-3---|
C#|-----------------------------------------------------------------|
    1 + 2 + 3 + 4 + 1 + 2 + 3 + 4 + 1 + 2 + 3 + 4 + 1 + 2 + 3 + 4 + 

F#|-----------------------------------------------------------------|
C#|-----------------------------------------------------------------|
G#|-5-5-5---5-5-5-3-3-3-3---3-3-3-------------------1-1-1-3-3-3-3-3-|
C#|-------------------------------5-5-5-5---5-5-5-5-----------------|
    1 + 2 + 3 + 4 + 1 + 2 + 3 + 4 + 1 + 2 + 3 + 4 + 1 + 2 + 3 + 4 + 

F#|-----------------------------------------------------------------|
C#|-----------------------------------------------------------------|
G#|-5-5-5-5-5-5-5-5-3-3-3-3-3-3-3-3-1-1-1-1-1-1-1-1-3-3-3-3-3-3-3-3-|
C#|-----------------------------------------------------------------|
    1 + 2 + 3 + 4 + 1 + 2 + 3 + 4 + 1 + 2 + 3 + 4 + 1 + 2 + 3 + 4 + 

F#|-----------------------------------------------------------------|
C#|----------------/8-8-8-7-7-5-------------------------------------|
G#|-1-1-1-1-1-1-1-1-------------5-7-3-3-3-3-3-3-3-5-3---\-----------|
C#|-----------------------------------------------------------------|
    1 + 2 + 3 + 4 + 1 + 2 + 3 + 4 + 1 + 2 + 3 + 4 + 1 + 2 + 3 + 4 + 

Interlude 2:14
F#|------------------------------------------------------------------|
C#|o-----------------------------------------------------------------|
G#|o---------3-------3-h-5---\---\-----------------------------------|
C#|--0---0-------------------------------------------0---0-0-0-0-0-0-|
     1 e + a 2 e + a 3 e + a 4 e + a 1 e + a 2 e + a 3 e + a 4 e + a

F#|------------------------------------------------------------------|
C#|-----------------------------------------------------------------o|
G#|---------3-------3-h-5---\---\---1---------------3---------------o|
C#|-0---0------------------------------------------------------------|
    1 e + a 2 e + a 3 e + a 4 e + a 1 e + a 2 e + a 3 e + a 4 e + a

Solo 2:24
F#|------------------------------------------------------------------|
C#|o-----------------------------------------------------------------|
G#|o---------3-------3-h-5-----------3-------3-h-5-----------5---7---|
C#|--0---0-0-----0-0---------0-0-0-0-----0-0---------0-0-0-0---------|
     1 e + a 2 e + a 3 e + a 4 e + a 1 e + a 2 e + a 3 e + a 4 e + a

F#|------------------------------------------------------------------|
C#|-----------------------------------------------------------------o|
G#|-1---1-1-1---1-1-1---1---1-1-1-1-------------------------3---3---o|x3
C#|---------------------------------3---0-0-0-0-3---0-0-0-0----------|
    1 e + a 2 e + a 3 e + a 4 e + a 1 e + a 2 e + a 3 e + a 4 e + a

2:42
F#|-----------------------------------------------------------------|
C#|-----------------------------------------------------------------|
G#|---------3-------3-h-5-----------3-------3-h-5-----------5---7---|
C#|-0---0-------0-----------0---0-------0-----------0---0-----------|
    1 e + a 2 e + a 3 e + a 4 e + a 1 e + a 2 e + a 3 e + a 4 e + a

F#|-----------------------------------------------------------------|
C#|-----------------------------------------------------------------|
G#|-1---1---1---1---1---1---1---1-----------------------3---3---3---|
C#|---------------------------------3---3---3---3---3---------------|
    1 e + a 2 e + a 3 e + a 4 e + a 1 e + a 2 e + a 3 e + a 4 e + a

Pre Chorus 2:48
F#|-----------------------------------------------------------------|
C#|-----------------------------------------------------------------|
G#|-1---1---1---1---1---1---1---3-------3---3---3---3---3---1---0---|
C#|-----------------------------------------------------------------|
    1 e + a 2 e + a 3 e + a 4 e + a 1 e + a 2 e + a 3 e + a 4 e + a

2:50
F#|-----------------------------------------------------------------|
C#|-----------------------------------------------------------------|
G#|-5-5-5---5-5-5-3-3-3-3---3-3-3-1-1-1-1---1-1-1-1-3-3-3-3-3-3-3---|
C#|-----------------------------------------------------------------|
    1 + 2 + 3 + 4 + 1 + 2 + 3 + 4 + 1 + 2 + 3 + 4 + 1 + 2 + 3 + 4 + 

F#|-----------------------------------------------------------------|
C#|-----------------------------------------------------------------|
G#|-5-5-5---5-5-5-3-3-3-3---3-3-3-------------------1-1-1-3-3-3-3-3-|
C#|-------------------------------5-5-5-5---5-5-5-5-----------------|
    1 + 2 + 3 + 4 + 1 + 2 + 3 + 4 + 1 + 2 + 3 + 4 + 1 + 2 + 3 + 4 + 

F#|-------------------------------------------------------------------|
C#|-------------------------------------------------------10-8-7------|
G#|-5-5-5-5-5-5-5-5-3-3-3-3-3-3-3-3-1-1-1-1-1-1-1-1-3-3-3--------10-8-|
C#|-------------------------------------------------------------------|
    1 + 2 + 3 + 4 + 1 + 2 + 3 + 4 + 1 + 2 + 3 + 4 + 1 + 2 +  3 + 4  + 

F#|-----------------------------------------------------------------|
C#|-----------------------------------------------------------------|
G#|-1-1-1-1-1-1-1-1-1-1-1-1-1-1-1-1-1-1-1-1-1-1-1-1-1-1-1-1-1-1-1-1-|
C#|-----------------------------------------------------------------|
    1 e + a 2 e + a 3 e + a 4 e + a 1 e + a 2 e + a 3 e + a 4 e + a

F#|-----------------------------------------------------------------|
C#|-----------------------------------------------------------------|
G#|-3-3-3-3-3-3-3-3-3-3-3-3-3-3-3-3/15------------------------------|
C#|-----------------------------------------------------------------|
    1 e + a 2 e + a 3 e + a 4 e + a 1 e + a 2 e + a 3 e + a 4 e + a

Outro 3:14
F#|-----------------------------------------------------------------|
C#|-----------------------------------------------------------------|
G#|---------3-------3-h-5---\---\-----------------------------------|
C#|-0-----------------------------------0-0-0-0-0-0-0---0-0-0-0-0-0-|
    1 e + a 2 e + a 3 e + a 4 e + a 1 e + a 2 e + a 3 e + a 4 e + a

F#|-----------------------------------------------------------------|
C#|-----------------------------------------------------------------|
G#|---------3-------3-h-5---\---\---1-------------------------------|
C#|-0-----------------------------------------------3---------------|
    1 e + a 2 e + a 3 e + a 4 e + a 1 e + a 2 e + a 3 e + a 4 e + a

F#|-----------------------------------------------------------------|
C#|-----------------------------------------------------------------|
G#|---------3-------3-h-5---\---\-----------------------------------|
C#|-0-----------------------------------0-0-0-0-0-0-0---0-0-0-0-0-0-|
    1 e + a 2 e + a 3 e + a 4 e + a 1 e + a 2 e + a 3 e + a 4 e + a

F#|-----------------------------------------------------------------|
C#|-----------------------------------------------------------------|
G#|---------3-------3-h-5---\---\---1-------------------------------|
C#|-0-----------------------------------------------3-----------0---|
    1 e + a 2 e + a 3 e + a 4 e + a 1 e + a 2 e + a 3 e + a 4 e + a

Tabbed by Dave Vucko

            
            
Suggest correction
Creating personal tab
Creating personal tab
You can edit any tab online and save it as your Personal.

You can edit, replace or remove any tab part or add personal notes – all changes will be seen only by you.

Personal tabs can be accessed anytime from any device, even offline.
Learn more »
Give kudos to tab author, rate the tab!
1 2 3 4 5
comments
print report bad tab
guest
You may want to rate the tab now too:
select rating
Wanna post a correction for this tab? Suggest correction