Oops, an error
Loading. Please wait.

Sons Of Night tab

version 1
version 1

Whole song

1,279 views 3 this week
no commentswrite comment
1 2 3 4 5
x 4
add to favorites
×
Save as Personal and add changes to this tab that will be seen only by you. Learn more ›
×
You can save this tab as Personal to edit and correct it or add notes. All changes will be seen only by you. Learn more »
launch autoscroll
font size
0
reset
how to read this tab
guitar tuner
edit
Autoscroll
slow
fast
+/-
esc
set tempo
stop
-------------------------------------------------------------------------------
                             Sons Of Night - Black Veil Brides
-------------------------------------------------------------------------------
Tabbed by: Lucas Nicolle
E-mail: lucas.nicolle50@gmail.com

Guitar 1 : Jake Pitts
Guitar 2 : Jinxx
Guitar 3 : Jinxx and Pitts

Tuning: Drop C 


Intro

Guitar 3
D|----------------------------------------------------------------------------|
A|----------------------------------------------------------------------------|
F|-------------5--------------------------------------------------------------|
C|----2--------5--X16---5--------7--------------------------------------------|
G|----2--X16---3--------5--X16---5--X16---------------------------------------|
C|----2-----------------5--------4--------------------------------------------|

Guitar 1
D|----------------------------------------------------------------------------|
A|-----------------------------17-15-13-15-12--12-13-15-13h15p13-12-----------|
F|9-11-12-12/14-12-------11-----------------------------------------12--------|
C|-----------------12-14----12------------------------------------------------|
G|----------------------------------------------------------------------------|
C|----------------------------------------------------------------------------|

D|14-10----------------------10-14--17-14----------14-17--20-17----------17-19|
A|------12----------------12--------------15----15--------------19----19------|
F|---------11----------11--------------------16--------------------20---------|
C|------------12----12--------------------------------------------------------|
G|---------------14-----------------------------------------------------------|
C|----------------------------------------------------------------------------|

Guitar 2
D|-------------------------------15-14-12-14-10--10-12-14-12h14p12-----------|
A|8-10-12-12/13-12--------12---------------------------------------12--------|
F|------------------12-14----12----------------------------------------------|
C|---------------------------------------------------------------------------|
G|---------------------------------------------------------------------------|
C|---------------------------------------------------------------------------|


Verse

Guitar 3
D|---------------------------------------------------------------------------|
A|---------------------------------------------------------------------------|
F|----------------4-------2-----4----5----------------5-------4-4------------|
C|2--2-2-2-2-2-2--4-------2-----4----5---2-2-2-2-2-2--5-------4-4------------|
G|2--2-2-2-2-2-2-------------------------2-2-2-2-2-2-------------------------|
C|2--2-2-2-2-2-2----2-2-----2-----2------2-2-2-2-2-2-----2-2-----------------|

D|---------------------------------------------------------------------------|
A|---------------------------------------------------------------------------|
F|----------------9-------7-----9--------------------------------------------|
C|5--5-5-5-5-5-5--5-------5-----5--7--7-7-7-7-7-7-7-7-7-7-7------------------|     X 2
G|5--5-5-5-5-5-5-------------------5--5-5-5-5-5-5-5-5-5-5-5------------------|
C|5--5-5-5-5-5-5-----5-5-----5-----4--4-4-4-4-4-4-4-4-4-4-4--5-4-------------|


Pre-chorus

Guitar 1
D|---------------------------------------------------------------------------|
A|7b9---7-8-8b10br8-7---10b12------------------------------------------------|
F|----9---------------9------------------------------------------------------|
C|---------------------------------------------------------------------------|
G|---------------------------------------------------------------------------|
C|---------------------------------------------------------------------------|


Chorus

Guitar 1
D|------------------------12----12-14-15-14-12-------------------------------|
A|---------------12----12----12----------------12----------------------------|
F|------12----12----12-------------------------------------------------------|
C|---12----12----------------------------------------------------------------|
G|14-------------------------------------------------------------------------|
C|---------------------------------------------------------------------------|

D|---------------------------------------------------------------------------|
A|17-13----13-15-13----13--15-13-12-13-15-13-12------------------------------|
F|------14----------14--------------------------12---------------------------|
C|---------------------------------------------------------------------------|
G|---------------------------------------------------------------------------|
C|---------------------------------------------------------------------------|

D|---------------12----12-15----17-19-22-19-17-------------------------------|
A|------12----12----12-------17----------------19----------------------------|
F|12-12----12----------------------------------------------------------------|
C|---------------------------------------------------------------------------|
G|---------------------------------------------------------------------------|
C|---------------------------------------------------------------------------|

D|20-17----------------------------------------------------------------------|
A|------19----19-----------19-16-------------19-16---------------------------|
F|---------20----20-17-----------17----17------------------------------------|
C|---------------------19-----------19----19---------------------------------|
G|---------------------------------------------------------------------------|
C|---------------------------------------------------------------------------|

Guitar 2
D|----------------12----12-15-12-15-17-19-17-15------------------------------|
A|------12-----12----12-------------------------17---------------------------|
F|---12-----12---------------------------------------------------------------|
C|14-------------------------------------------------------------------------|
G|---------------------------------------------------------------------------|
C|---------------------------------------------------------------------------|

D|20-15----15----------------------------------------------------------------|
A|------17----17----17-------------------------------------------------------|
F|---------------17----17-16-17-16----16-------------------------------------|
C|---------------------------------17----17-14-17----------------------------|
G|---------------------------------------------------------------------------|
C|---------------------------------------------------------------------------|

D|---------------------------------15-19-15-14-15----------------------------|
A|------------------------------19-------------------------------------------|
F|---------------16----16-19-16----------------------------------------------|
C|------17----17----17-------------------------------------------------------|
G|14-17----17----------------------------------------------------------------|
C|---------------------------------------------------------------------------|

D|17-14----------------------------------------------------------------------|
A|------16----16----------16-13-------------16-13----------------------------|
F|---------17----17-14----------14----14-------------------------------------|
C|---------------------16----------16----16----------------------------------|
G|---------------------------------------------------------------------------|
C|---------------------------------------------------------------------------|

Guitar 3
D|----------------------------------------------------------------------------|
A|----------------------------------------------------------------------------|
F|-------------5--------------------------------------------------------------|
C|----2--------5--X16---5--------7--------------------------------------------|
G|----2--X16---3--------5--X16---5--X16---------------------------------------|
C|----2-----------------5--------4--------------------------------------------|


Bridge

Guitar 3
D|---------------------------------------------------------------------------|
A|---------------------------------------------------------------------------|
F|---------------------------------------------------------------------------|
C|2-2--2-2--2-2-----------------2-2--2-2--2-2--------------------------------|
G|2-2--2-2--2-2--3p2---2--------2-2--2-2--2-2--3p2---------------------------|
C|2-2--2-2--2-2------2---2-5h7--2-2--2-2--2-2------2-5*----------------------|

D|---------------------------------------------------------------------------|
A|---------------------------------------------------------------------------|
F|-------------------------------------------4-------------------------------|
C|2-2--2-2--2-2-----------------5-5--5-5--5--4-------------------------------|
G|2-2--2-2--2-2--3p2---2--------5-5--5-5--5--2-------------------------------|
C|2-2--2-2--2-2------2---2-5h7--5-5--5-5--5----------------------------------|

Guitar 1
D|19-17----17----------------------------------------------------------------|
A|------19----19-17-16-------------------------------------------------------|
F|---------------------------------------------------------------------------|
C|---------------------------------------------------------------------------|
G|---------------------------------------------------------------------------|
C|---------------------------------------------------------------------------|

Guitar 2
D|---------------------------------------------------------------------------|
A|19-17-16-17-16-------------------------------------------------------------|
F|---------------17-16-------------------------------------------------------|
C|---------------------------------------------------------------------------|
G|---------------------------------------------------------------------------|
C|---------------------------------------------------------------------------|

Verse
pre-chorus
Chorus
Bridge X2


Solo

Guitar 1
D|---------------------------------------------------------------------------|
A|8---8-/13-12-10-12-10-8-8h10p8-7-8---7-----7-8-----------------------------|
F|--9--------------------------------9---7-9---------------------------------|
C|---------------------------------------------------------------------------|
G|---------------------------------------------------------------------------|
C|---------------------------------------------------------------------------|

D|17-17-17-17-17-17--14-14--15-15-15-15-15-15-15--10-10--14-14-14-14-14-14---|
A|---------------------------------------------------------------------------|
F|---------------------------------------------------------------------------|
C|---------------------------------------------------------------------------|
G|---------------------------------------------------------------------------|
C|---------------------------------------------------------------------------|

D|11-11-11--12-12-12--14-14-14--11-12-14-------------------------------------|
A|---------------------------------------------------------------------------|
F|---------------------------------------------------------------------------|
C|---------------------------------------------------------------------------|
G|---------------------------------------------------------------------------|
C|---------------------------------------------------------------------------|

D|15p12h14p12h15p12h14p12h15p12h14p12h15p12h14p12----------------------------|
A|---------------------------------------------------------------------------|
F|---------------------------------------------------------------------------|
C|---------------------------------------------------------------------------|
G|---------------------------------------------------------------------------|
C|---------------------------------------------------------------------------|

D|17p14h15p14h17p14h15p14h17p14h15p14h17p14h15p14h---------------------------|
A|---------------------------------------------------------------------------|
F|---------------------------------------------------------------------------|
C|---------------------------------------------------------------------------|
G|---------------------------------------------------------------------------|
C|---------------------------------------------------------------------------|

D|19p15h17p15h19p15h17p15h19p15h17p15h19p15h17p15h---------------------------|
A|---------------------------------------------------------------------------|
F|---------------------------------------------------------------------------|
C|---------------------------------------------------------------------------|
G|---------------------------------------------------------------------------|
C|---------------------------------------------------------------------------|

D|14p10h12p10h14p10h12p10h14p10h12p10h14p10h12p10h---------------------------|
A|---------------------------------------------------------------------------|
F|---------------------------------------------------------------------------|
C|---------------------------------------------------------------------------|
G|---------------------------------------------------------------------------|
C|---------------------------------------------------------------------------|

D|---------------------------------------------------------------------------|
A|11-11h15/17-15h17-17b20-17-16----------------------------------------------|
F|---------------------------------------------------------------------------|
C|---------------------------------------------------------------------------|
G|---------------------------------------------------------------------------|
C|---------------------------------------------------------------------------|

D|---------------14-17-14-------------------------------15-19----------------|
A|------------15----------15-------------------------17----------------------|
F|---------16----------------16-------------------16-------------------------|
C|------16----------------------16-------------17----------------------------|
G|14-17----------------------------17-14-14h19-------------------------------|
C|---------------------------------------------------------------------------|


Breakdown

Guitar 3
D|---------------------------------------------------------------------------|
A|---------------------------------------------------------------------------|
F|---------------------------------------------------------------------------|
C|------------------------5-4-2----------------------2---2-------------------|
G|------------------------------2-3-3-3-3-3-3-3-3--3---3---3-----------------|
C|2-2-2-2-2-2-2-2-2-2-2-2----------------------------------------------------|

D|---------------------------------------------------------------------------|
A|---------------------------------------------------------------------------|
F|---------------------------------------------------------------------------|
C|---------------------------------------------------------------------------|
G|2-3-2-0---------------------------------3-3-3-3-3-3-3-3-3-3-3-3-3-3-3-3----|
C|--------5-5-5-5-5-5-5-5-5-5-5-5-5-5-5-5------------------------------------|

Chorus 
Bridge 

Any corrections at lucas.nicolle50@gmail.com

************************************

| /   slide up
| \   slide down
| h   hammer-on
| p   pull-off
| ~   vibrato
| +   harmonic
| x   Mute note
| b   Bend
| pb  Pre-bend
| br  Bend release
| pbr Pre-bend release
| brb Bend release bend

************************************

            
            
Suggest correction
Creating personal tab
Creating personal tab
You can edit any tab online and save it as your Personal.

You can edit, replace or remove any tab part or add personal notes – all changes will be seen only by you.

Personal tabs can be accessed anytime from any device, even offline.
Learn more »
comments
print report bad tab
guest
You may want to rate the tab now too:
select rating
Wanna post a correction for this tab? Suggest correction