Oops, an error
Loading. Please wait.

The Gunsling tab

version 2
version 2

Whole song

Interactive

20,842 views 6 this week
7 commentsread comments
1 2 3 4 5
x 12
add to favorites
×
Save as Personal and add changes to this tab that will be seen only by you. Learn more ›
×
You can save this tab as Personal to edit and correct it or add notes. All changes will be seen only by you. Learn more »
launch autoscroll
font size
0
reset
how to read this tab
guitar tuner
edit
Autoscroll
slow
fast
+/-
esc
set tempo
stop
-------------------------------------------------------------------------------
                             The Gunsling - Black Veil Brides
-------------------------------------------------------------------------------
Tabbed by: Daniel Ochoa
Email: miniosolo@yahoo.com

   I'm only tabbing the electric guitar parts and not the acoustic intro cuz I'm 
not good at finger picking soooo enjoy!
 By the way this is my first tab and if i got anything wrong please message me ^_^ 
its pretty accurate i think

Tuning: Drop D (DADGBe) for both guitars

  Guitar 1 - Electric Guitar Intro (x2)
e|---------------------------------------------------------------------------|
B|---------------------------------------------------------------------------|
G|---------------------------------------------------------------------------|
D|-9---------------------4-5-22-44-2-4---------------------------------------|
A|-9-55-77-99-1010-99-77-4-5-------2-4-/9-7----------------------------------|
D|-9---------------------4-5-------2-4---------------------------------------|

e|---------------------------------------------------------------------------|
B|---------------------------------------------------------------------------|
G|---------------------------------------------------------------------------|
D|-9---------------------4-5~-2-4~-12\---------------------------------------|
A|-9-55-77-99-1010-99-77-4-5~-2-4~-12\---------------------------------------|
D|-9---------------------4-5~-2-4~-12\---------------------------------------|

  Guitar 2 - Electric Guitar Intro (x2)
e|---------------------------------------------------------------------------|
B|---------------------------------------------------------------------------|
G|-4-------------------------------------------------------------------------|
D|-4-------------------4-5-------2-4-----------------------------------------|
A|-2-22-44-55-77-55-44-4-5-44-55-2-4-/5-4------------------------------------|
D|---------------------4-5-------2-4-----------------------------------------|

e|---------------------------------------------------------------------------|
B|---------------------------------------------------------------------------|
G|-4-------------------------------------------------------------------------|
D|-4-------------------4-5~-2-4~-12\-----------------------------------------|
A|-2-22-44-55-77-55-44-4-5~-2-4~-12\-----------------------------------------|
D|---------------------4-5~-2-4~-12\-----------------------------------------|

  Guitar 1 - Verse After Intro (x4)
e|---------------------------------------------------------------------------|
B|---------------------------------------------------------------------------|
G|---------------------------------------------------------------------------|
D|----------------------------------------2/4-2------------------------------|
A|-2-2-2-2-2-2-2-2----------------------2------------------------------------|
D|--4-4-4-4-4-4-4-4-5-4-5-4-5-4-5-4-2-4--------------------------------------|
 PM * * * * * * *   * * * * * * * * * *
  
  -The fourth time it changes to this-
e|---------------------------------------------------------------------------|
B|---------------------------------------------------------------------------|
G|---------------------------------------------------------------------------|
D|-----------------5~-2-4~---------------------------------------------------|
A|-2-2-2-2-2-2-2---5~-2-4~---------------------------------------------------|
D|--4-4-4-4-4-4-4\-5~-2-4~---------------------------------------------------|
 PM * * * * * * 

  Guitar 2 - Verse After Intro (x4)
e|---------------------------------------------------------------------------|
B|---------------------------------------------------------------------------|
G|---------------------------------------------------------------------------|
D|---------------------------------------------------------------------------|
A|-2-2-2-2-2-2-2-2----------------------2-4/5-4------------------------------|
D|--4-4-4-4-4-4-4-4-5-4-5-4-5-4-5-4-2-4--------------------------------------|
 PM * * * * * * *   * * * * * * * * * *

  -The fourth time it changes to this-
e|---------------------------------------------------------------------------|
B|---------------------------------------------------------------------------|
G|---------------------------------------------------------------------------|
D|-----------------5~-2-4~---------------------------------------------------|
A|-2-2-2-2-2-2-2---5~-2-4~---------------------------------------------------|
D|--4-4-4-4-4-4-4\-5~-2-4~---------------------------------------------------|
 PM * * * * * *

  Guitar 1 - First Solo
e|---------------------------------------------------------------------------|
B|-12~~-/15-14-12-10~~-/15-14-12\10-12~~-/15-14-14h15p14-17-/15-14-----------|
G|----------------------------------------------------------------11---------|
D|---------------------------------------------------------------------------|
A|---------------------------------------------------------------------------|
D|---------------------------------------------------------------------------|

e|---------------------------------------------------------------------------|
B|-12~~-/15-14-12-10~~-/15-14-12\10-12~~-/15-14-14h15p14-17-/15-14--12~~~~---|
G|----------------------------------------------------------------11---------|
D|---------------------------------------------------------------------------|
A|---------------------------------------------------------------------------|
D|---------------------------------------------------------------------------|

  Guitar 2 - During First Solo
e|---------------------------------------------------------------------------|
B|---------------------------------------------------------------------------|
G|-4~---------6~---------4~---------6~-/7-6-2--------------------------------|
D|-4~---------6~---------4~---------6~---------------------------------------|
A|-2~-5-5/7-5-4~-4/5-4-0-2~-5-5/7-5-4~---------------------------------------|
D|---------------------------------------------------------------------------|

e|---------------------------------------------------------------------------|
B|---------------------------------------------------------------------------|
G|-4~---------6~---------4~---------6~-/7-6-2-4~~~---------------------------|
D|-4~---------6~---------4~---------6~--------4~~~---------------------------|
A|-2~-5-5/7-5-4~-4/5-4-0-2~-5-5/7-5-4~--------2~~~------4-4h5-4--------------|
D|----------------------------------------------------44-4-------------------|
 PM                                                   ** *

  Guitar 1 - Main Verse
e|-------------------------------------------------------------------------------------------|
B|-------------------------------------------------------------------------------------------|
G|-------------------------------------------------------------------------------------------|
D|------------------2-4-4h5p4-0-7-4------------------222222-444444-555555-000000-777777-44---|
A|-2-2-2-2-2-2-2-2------------------2-2-2-2-2-2-2-2------------------------------------------|
D|--4-4-4-4-4-4-4-4------------------4-4-4-4-4-4-4-4-----------------------------------------|
 PM * * * * * * * *                  * * * * * * * * ****** ****** ****** ****** ****** **
e|---------------------------------------------------------------------------|
B|---------------------------------------------------------------------------|
G|---------------------------------------------------------------------------|
D|------------------2-4-4h5p5-0-7-4------------------5~-2-4~-----------------|
A|-2-2-2-2-2-2-2-2------------------2-2-2-2-2-2-2-2--5~-2-4~-----------------|
D|--4-4-4-4-4-4-4-4------------------4-4-4-4-4-4-4-4-5~-2-4~-----------------|
 PM * * * * * * * *                  * * * * * * * * 

  Guitar 2 - Main Verse
e|------------------------------------------------------------------------------------------|
B|------------------------------------------------------------------------------------------|
G|--------------------2-2h4p2-6-2-------------------------222222-444444--------666666-22----|
D|------------------5--------4---------------------555555---------------444444--------------|
A|-2-2-2-2-2-2-2-2----------------2-2-2-2-2-2-2-2-------------------------------------------|
D|--4-4-4-4-4-4-4-4----------------4-4-4-4-4-4-4-4------------------------------------------|
 PM * * * * * * * *                * * * * * * * * ****** ****** ****** ****** ****** **
e|---------------------------------------------------------------------------|
B|---------------------------------------------------------------------------|
G|--------------------2-2h4p2-6-2--------------------------------------------|
D|------------------5--------4---------------------5~-2-4~-------------------|
A|-2-2-2-2-2-2-2-2----------------2-2-2-2-2-2-2-2--5~-2-4~-------------------|
D|--4-4-4-4-4-4-4-4----------------4-4-4-4-4-4-4-4-5~-2-4~-------------------|
 PM * * * * * * * *                * * * * * * * *

  Guitar 1 - Chorus and Mini-solo After
e|------------------------------------------------------------------------------------------|
B|-----------------------------------------0h12h14-0h10h12-0h9h10-0h7h9-0h5h7-0h3h5-2~~~----|
G|-------------9~~--------------------------------------------------------------------------|
D|-9~~-5~~-0~~-9~~-9~~-5~~-0~~-7~~-99-99-9--------------------------------------------------|
A|-9~~-5~~-0~~-7~~-9~~-5~~-0~~-7~~-99-99-9--------------------------------------------------|
D|-9~~-5~~-0~~-----9~~-5~~-0~~-7~~-99-99-9--------------------------------------------------|

  Guitar 2 - Chorus
e|---------------------------------------------------------------------------|
B|---------------------------------------------------------------------------|
G|-------------9~~-----------------------------------------------------------|
D|-9~~-5~~-0~~-9~~-9~~-5~~-----4-5-4---0~~-7~~-99-99-9-----------------------|
A|-9~~-5~~-0~~-7~~-9~~-5~~-5-7-------7-0~~-7~~-99-99-9-----------------------|
D|-9~~-5~~-0~~-----9~~-5~~-------------0~~-7~~-99-99-9-----------------------|

  Guitar 1 - First Solo 2nd Time
e|---------------------------------------------------------------------------|
B|-12~~-/15-14-12-10~~-/15-14-12\10-12~~-/15-14-14h15p14-17-/15-14-----------|
G|----------------------------------------------------------------11---------|
D|---------------------------------------------------------------------------|
A|---------------------------------------------------------------------------|
D|---------------------------------------------------------------------------|

e|---------------------------------------------------------------------------|
B|-12~~-/15-14-12-10~~-/15-14-12\10-12~~-/15-14-14h15p14-17-/15-14--12~~~~---|
G|----------------------------------------------------------------11---------|
D|---------------------------------------------------------------------------|
A|---------------------------------------------------------------------------|
D|---------------------------------------------------------------------------|

  Guitar 2 - During First Solo 2nd Time
e|---------------------------------------------------------------------------|
B|---------------------------------------------------------------------------|
G|-4~---------6~---------4~---------6~-/7-6-2--------------------------------|
D|-4~---------6~---------4~---------6~---------------------------------------|
A|-2~-5-5/7-5-4~-4/5-4-0-2~-5-5/7-5-4~---------------------------------------|
D|---------------------------------------------------------------------------|

e|---------------------------------------------------------------------------|
B|---------------------------------------------------------------------------|
G|-4~---------6~---------4~---------6~-/7-6-2-4~~~---------------------------|
D|-4~---------6~---------4~---------6~--------4~~~---------------------------|
A|-2~-5-5/7-5-4~-4/5-4-0-2~-5-5/7-5-4~--------2~~~------4-4h5-4--------------|
D|----------------------------------------------------44-4-------------------|
 PM                                                   ** *

  Guitar 1 - Main Verse 2nd Time
e|-------------------------------------------------------------------------------------------|
B|-------------------------------------------------------------------------------------------|
G|-------------------------------------------------------------------------------------------|
D|------------------2-4-4h5p4-0-7-4------------------222222-444444-555555-000000-777777-44---|
A|-2-2-2-2-2-2-2-2------------------2-2-2-2-2-2-2-2------------------------------------------|
D|--4-4-4-4-4-4-4-4------------------4-4-4-4-4-4-4-4-----------------------------------------|
 PM * * * * * * * *                  * * * * * * * * ****** ****** ****** ****** ****** **
e|---------------------------------------------------------------------------|
B|---------------------------------------------------------------------------|
G|-----------------------------------------------------------7~-9~-----------|
D|------------------2-4-4h5p5-0-7-4------------------5~-2-4~-7~-9~-----------|
A|-2-2-2-2-2-2-2-2------------------2-2-2-2-2-2-2-2--5~-2-4~-5~-7~-----------|
D|--4-4-4-4-4-4-4-4------------------4-4-4-4-4-4-4-4-5~-2-4~-----------------|
 PM * * * * * * * *                  * * * * * * * * 

  Guitar 2 - Main Verse 2nd Time
e|------------------------------------------------------------------------------------------|
B|------------------------------------------------------------------------------------------|
G|--------------------2-2h4p2-6-2-------------------------222222-444444--------666666-22----|
D|------------------5--------4---------------------555555---------------444444--------------|
A|-2-2-2-2-2-2-2-2----------------2-2-2-2-2-2-2-2-------------------------------------------|
D|--4-4-4-4-4-4-4-4----------------4-4-4-4-4-4-4-4------------------------------------------|
 PM * * * * * * * *                * * * * * * * * ****** ****** ****** ****** ****** **
e|---------------------------------------------------------------------------|
B|---------------------------------------------------------------------------|
G|--------------------2-2h4p2-6-2--------------------------------------------|
D|------------------5--------4---------------------5~-2-4~-5~-7~-------------|
A|-2-2-2-2-2-2-2-2----------------2-2-2-2-2-2-2-2--5~-2-4~-5~-7~-------------|
D|--4-4-4-4-4-4-4-4----------------4-4-4-4-4-4-4-4-5~-2-4~-5~-7~-------------|
 PM * * * * * * * *                * * * * * * * *

  Guitar 1 - Pre-Chorus (x3)
e|---------------------------------------------------------------------------|
B|---------------------------------------------------------------------------|
G|-----11-----12---11-----9---9h11-9--7~-9~----------------------------------|
D|-9-9----9-9----9----9-9---9---------7~-9~----------------------------------|
A|------------------------------------5~-7~----------------------------------|
D|---------------------------------------------------------------------------|
 PM* *    * *    *    * *   *

  Guitar 2 - Pre-Chorus (x3)
e|---------------------------------------------------------------------------|
B|---------------------------------------------------------------------------|
G|---------------------------------------------------------------------------|
D|-9-9-9-9-9-9-9-9-9-9-9-9-9-9-9-9--5~-7~------------------------------------|
A|-9-9-9-9-9-9-9-9-9-9-9-9-9-9-9-9--5~-7~------------------------------------|
D|-9-9-9-9-9-9-9-9-9-9-9-9-9-9-9-9--5~-7~------------------------------------|
 PM* * * * * * * * * * * * * * * *

  Guitar 1 - Chorus 2nd Time
e|---------------------------------------------------------------------------|
B|---------------------------------------------------------------------------|
G|-------------9~~-----------------------------------------------------------|
D|-9~~-5~~-0~~-9~~-9~~-5~~-0~~-7~~-------------------------------------------|
A|-9~~-5~~-0~~-7~~-9~~-5~~-0~~-7~~-------------------------------------------|
D|-9~~-5~~-0~~-----9~~-5~~-0~~-7~~-------------------------------------------|

  Guitar 2 - Chorus 2nd Time
e|---------------------------------------------------------------------------|
B|---------------------------------------------------------------------------|
G|-------------9~~-----------------------------------------------------------|
D|-9~~-5~~-0~~-9~~-9~~-5~~-----4-5-4---0~~-7~~-------------------------------|
A|-9~~-5~~-0~~-7~~-9~~-5~~-5-7-------7-0~~-7~~-------------------------------|
D|-9~~-5~~-0~~-----9~~-5~~-------------0~~-7~~-------------------------------|
  
  Both Guitars - Verse After 2nd Chorus
e|---------------------------------------------------------------------------|
B|---------------------------------------------------------------------------|
G|-----------------------------------7777777777777777-9999999999999999-------|
D|-9999999999999999-5555555555555555-7777777777777777-9999999999999999-------|
A|-9999999999999999-5555555555555555-5555555555555555-7777777777777777-------|
D|-9999999999999999-5555555555555555-----------------------------------------|

e|---------------------------------------------------------------------------|
B|---------------------------------------------------------------------------|
G|-----------------------------------7777777777777777------------------------|
D|-9999999999999999-5555555555555555-7777777777777777-777777777777-----------|
A|-9999999999999999-5555555555555555-5555555555555555-777777777777-----------|
D|-9999999999999999-5555555555555555------------------777777777777-----------|

e|---------------------------------------------------------------------------|
B|---------------------------------------------------------------------------|
G|---------------------------------------------------------------------------|
D|-999999999999999999999-----------------------------------------------------|
A|-999999999999999999999-----------------------------------------------------|
D|-999999999999999999999-----------------------------------------------------|

  Guitar 1 - Pre-Solo Verse
e|---------------------------------------------------------------------------|
B|---------------------------------------------------------------------------|
G|----------/9-7-6-9-9/11~~---------/9-7-6-9-9/11~~----------/9-7-6-9-9/11~~-|
D|-/9-7-5-4----------------/9-7-5-4-----------------/9-7-5-4-----------------|
A|---------------------------------------------------------------------------|
D|---------------------------------------------------------------------------|

e|---------------------------------------------------------------------------|
B|---------------------------------------------------------------------------|
G|----------/11~~~~----------------------------------------------------------|
D|-/9-7-5-4------------------------------------------------------------------|
A|---------------------------------------------------------------------------|
D|---------------------------------------------------------------------------|
 
  Guitar 2 - Pre-Solo Verse
e|---------------------------------------------------------------------------|
B|-------------------4~~-------------------4~~-------------------4~~---------|
G|-------------------4~~-------------------4~~-------------------4~~---------|
D|-/5-4-2-0-/7-5-4-7-2~~-/5-4-2-0-/7-5-4-7-2~~-/5-4-2-0-/7-5-4-7-2~~---------|
A|---------------------------------------------------------------------------|
D|---------------------------------------------------------------------------|

e|---------------------------------------------------------------------------|
B|---------------------------------------------------------------------------|
G|---------------------------------------------------------------------------|
D|-/5-4-2-0-/7~~~~-----------------------------------------------------------|
A|---------------------------------------------------------------------------|
D|---------------------------------------------------------------------------|

  Guitar 1 - Solo
e|-14------14~~-/14-15-12~~-14-15-10~~-12-14-9~~-9h10p9-12-10-9-10-----------|
B|---15--15------------------------------------------------------------------|
G|-----16--------------------------------------------------------------------|
D|---------------------------------------------------------------------------|
A|---------------------------------------------------------------------------|
D|---------------------------------------------------------------------------|

e|-/14~~-/14-15-12~~-14-15-10~~~-12-14-9~~-9h10p9-7~~------------------------|
B|---------------------------------------------------------------------------|
G|---------------------------------------------------------------------------|
D|---------------------------------------------------------------------------|
A|---------------------------------------------------------------------------|
D|---------------------------------------------------------------------------|

       (for this part tremolo pick, listen to the song for the speed)
e|-1414------14////////////-14//-15//-12////////////-14//-15//-10////////////--|
B|-----15----------------------------------------------------------------------|
G|-------16\-------------------------------------------------------------------|
D|-----------------------------------------------------------------------------|
A|-----------------------------------------------------------------------------|
D|-----------------------------------------------------------------------------|

e|-12//-14//-9////////-9//8//9//-12//-10//-9//-10//--------------------------|
B|---------------------------------------------------------------------------|
G|---------------------------------------------------------------------------|
D|---------------------------------------------------------------------------|
A|---------------------------------------------------------------------------|
D|---------------------------------------------------------------------------|

e|-14////////////-14//-15//-12////////////-14//-15//-10////////////----------|
B|---------------------------------------------------------------------------|
G|---------------------------------------------------------------------------|
D|---------------------------------------------------------------------------|
A|---------------------------------------------------------------------------|
D|---------------------------------------------------------------------------|

e|-12//-14//-9////////-9//8//9//-7~~~~~--------------------------------------|
B|---------------------------------------------------------------------------|
G|--------------------------------------7~-9~--------------------------------|
D|--------------------------------------7~-9~--------------------------------|
A|--------------------------------------5~-7~--------------------------------|
D|---------------------------------------------------------------------------|

  Guitar 2 - During Solo
e|---------------------------------------------------------------------------|
B|---------------------------------------------------------------------------|
G|-------------9~~-----------------------------------------------------------|
D|-9~~-5~~-0~~-9~~-9~~-5~~-0~~-7~~-9999999999999999-5555555555555555---------|
A|-9~~-5~~-0~~-7~~-9~~-5~~-0~~-7~~-9999999999999999-5555555555555555---------|
D|-9~~-5~~-0~~-----9~~-5~~-0~~-7~~-9999999999999999-5555555555555555---------|

e|---------------------------------------------------------------------------|
B|---------------------------------------------------------------------------|
G|-7777777777777777-9999999999999999-----------------------------------------|
D|-7777777777777777-9999999999999999-9999999999999999-5555555555555555-------|
A|-5555555555555555-7777777777777777-9999999999999999-5555555555555555-------|
D|-----------------------------------9999999999999999-5555555555555555-------|

e|---------------------------------------------------------------------------|
B|---------------------------------------------------------------------------|
G|-7777777777777777----------------------------------------------------------|
D|-7777777777777777-7777777777777777-5~~-7~~---------------------------------|
A|-5555555555555555-7777777777777777-5~~-7~~---------------------------------|
D|------------------7777777777777777-5~~-7~~---------------------------------|

  Guitar 1 - Pre-Chorus 2nd Time (x3)
e|---------------------------------------------------------------------------|
B|---------------------------------------------------------------------------|
G|-----11-----12---11-----9---9h11-9--7~-9~----------------------------------|
D|-9-9----9-9----9----9-9---9---------7~-9~----------------------------------|
A|------------------------------------5~-7~----------------------------------|
D|---------------------------------------------------------------------------|
 PM* *    * *    *    * *   *

  Guitar 2 - Pre-Chorus 2nd Time (x3)
e|---------------------------------------------------------------------------|
B|---------------------------------------------------------------------------|
G|---------------------------------------------------------------------------|
D|-9-9-9-9-9-9-9-9-9-9-9-9-9-9-9-9--5~-7~------------------------------------|
A|-9-9-9-9-9-9-9-9-9-9-9-9-9-9-9-9--5~-7~------------------------------------|
D|-9-9-9-9-9-9-9-9-9-9-9-9-9-9-9-9--5~-7~------------------------------------|
 PM* * * * * * * * * * * * * * * *

  Guitar 1 - Chorus 3rd Time
e|---------------------------------------------------------------------------|
B|---------------------------------------------------------------------------|
G|-------------9~~-----------------------------------------------------------|
D|-9~~-5~~-0~~-9~~-9~~-5~~-0~~-7~~-------------------------------------------|
A|-9~~-5~~-0~~-7~~-9~~-5~~-0~~-7~~-------------------------------------------|
D|-9~~-5~~-0~~-----9~~-5~~-0~~-7~~-------------------------------------------|

  Guitar 2 - Chorus 3rd Time
e|---------------------------------------------------------------------------|
B|---------------------------------------------------------------------------|
G|-------------9~~-----------------------------------------------------------|
D|-9~~-5~~-0~~-9~~-9~~-5~~-----4-5-4---0~~-7~~-------------------------------|
A|-9~~-5~~-0~~-7~~-9~~-5~~-5-7-------7-0~~-7~~-------------------------------|
D|-9~~-5~~-0~~-----9~~-5~~-------------0~~-7~~-------------------------------|
  
Both Guitars - Verse After 3rd Chorus
e|---------------------------------------------------------------------------|
B|---------------------------------------------------------------------------|
G|-----------------------------------7777777777777777-9999999999999999-------|
D|-9999999999999999-5555555555555555-7777777777777777-9999999999999999-------|
A|-9999999999999999-5555555555555555-5555555555555555-7777777777777777-------|
D|-9999999999999999-5555555555555555-----------------------------------------|

e|---------------------------------------------------------------------------|
B|---------------------------------------------------------------------------|
G|-----------------------------------7777777777777777------------------------|
D|-9999999999999999-5555555555555555-7777777777777777-777777777777-99-99-9---|
A|-9999999999999999-5555555555555555-5555555555555555-777777777777-99-99-9---|
D|-9999999999999999-5555555555555555------------------777777777777-99-99-9---|

                                 ~THE END~
Song Order:
Electric Guitar Intro
Verse After Intro
First Solo
Main Verse
Chorus (Mini-Solo)
First Solo (Repeated)
Main Verse
Pre-Chorus
Chorus
Verse After Chorus
Pre-Solo Verse
Solo
Pre-Chorus
Chorus
Verse After Chorus
(Sorry if this confuses you, listen to the
 song and you'll know which parts are which)

************************************
| *   Palm Muted
| /   slide up
| \   slide down
| h   hammer-on
| p   pull-off
| ~   vibrato
| +   harmonic
| x   Mute note
| b   Bend
| pb  Pre-bend
| br  Bend release
| pbr Pre-bend release
| brb Bend release bend

************************************

            
            
Suggest correction
Creating personal tab
Creating personal tab
You can edit any tab online and save it as your Personal.

You can edit, replace or remove any tab part or add personal notes – all changes will be seen only by you.

Personal tabs can be accessed anytime from any device, even offline.
Learn more »
comments
print report bad tab
7 comments total. Showing first comments.
0 reply
LogSeid 62 Jul 30, 2010 03:42 PM

Daniel, this is epic.

0 reply
DanDanGoesRawr 77 Aug 01, 2010 05:04 PM

Haha is it good?

0 reply
3dgfan 10 Aug 17, 2010 12:37 PM

Awesome, good job for your first tab! =)

guest
You may want to rate the tab now too:
select rating
Wanna post a correction for this tab? Suggest correction