Oops, an error
Loading. Please wait.

Unbroken bass

version 1
version 1

Whole song

Interactive

1,254 views 1 this week
no commentswrite comment
1 2 3 4 5
x 3
add to favorites
×
Save as Personal and add changes to this tab that will be seen only by you. Learn more ›
×
You can save this tab as Personal to edit and correct it or add notes. All changes will be seen only by you. Learn more »
launch autoscroll
font size
0
reset
guitar tuner
edit
Autoscroll
slow
fast
+/-
esc
set tempo
stop
F#|-------------------------------------------------------------------|
C#|o-------------2h3---2h3---3h5p3-----------------------------------o|
G#|o-3h5---3h5-----------------------0h1---0h1-----------------------o|x4
C#|----------------------------------------------3h5---3-5-3-5-3-0----|
     1 + 2 + 3 + 4 + 1 + 2 + 3 + 4 + 1 + 2 + 3 + 4 + 1 + 2 + 3 + 4 + 

0:18
F#|------------------------------------------------------------------|
C#|o-----------------------------------------------------------------|
G#|o-----------------------------------------------------------------|
C#|--0-0-0-0-0-0-0-0-0-0-0-0-0-0-0-0-3-3-3-3-3-3-3-3-3-3-3-3-3-3-3-3-|

F#|------------------------------------------------------------------|
C#|-----------------------------------------------------------------o|
G#|-1-1-1-1-1-1-1-1-1-1-1-1-1-1-1-1---------------------------------o|
C#|---------------------------------5-5-5-5-5-5-5-5-3-3-3-3-3-3-3-3--|

rest

0:39
F#|-------------------------------------------------------------------------|
C#|-------------------------------------------------------------------------|
G#|-1h3-----3h5-------------1h3---------------------------------------------|
C#|-----------------0---------------0-------3---3-3-3---3-----5-5---5-5-5-5-|
    3 + 4 + 1 + 2 + 3 + 4 + 1 + 2 + 3 + 4 + 1 + 2 + 3 + 4 + 1 + 2 + 3 + 4 + 

F#|-----------------------------------------------------------------|
C#|-----------------------------------------------------------------|
G#|-3h5-------------1h3---------------------------------------------|
C#|---------0---------------0-------3-3-3-3-3-3-0-3---0-3-0-3-5-3-0-|
    1 + 2 + 3 + 4 + 1 + 2 + 3 + 4 + 1 + 2 + 3 + 4 + 1 + 2 + 3 + 4 + 

0:49
F#|-----------------------------------------------------------------|
C#|-----------------------------------------------------------------|
G#|-3h5-------------1h3---------------------------------------------|
C#|---------0---0-----------0---0---3---3-3-3---3-3---5-5---5-5-5-5-|
    1 + 2 + 3 + 4 + 1 + 2 + 3 + 4 + 1 + 2 + 3 + 4 + 1 + 2 + 3 + 4 + 

F#|-----------------------------------------------------------------|
C#|-----------------------------------------------------------------|
G#|-1---1---1---1---1---1---1---1---0---0---0---0---0-1-0---0-------|
C#|-------------------------------------------------------5---5-3-2-|
    1 + 2 + 3 + 4 + 1 + 2 + 3 + 4 + 1 + 2 + 3 + 4 + 1 + 2 + 3 + 4 + 

0:57
F#|-------------------------------------------------------------------|
C#|o-------------2h3---2h3---3h5p3-----------------------------------o|
G#|o-3h5---3h5-----------------------0h1---0h1-----------------------o|
C#|----------------------------------------------3h5---3-5-3-5-3-0----|
     1 + 2 + 3 + 4 + 1 + 2 + 3 + 4 + 1 + 2 + 3 + 4 + 1 + 2 + 3 + 4 + 

1:07
F#|------------------------------------------------------------------|
C#|o-----------------------------------------------------------------|
G#|o-----------------------------------------------------------------|
C#|--0-0-0-0-0-0-0-0-0-0-0-0-0-0-0-0-3-3-3-3-3-3-3-3-3-3-3-3-3-3-3-3-|

F#|------------------------------------------------------------------|
C#|-----------------------------------------------------------------o|
G#|-1-1-1-1-1-1-1-1-1-1-1-1-1-1-1-1---------------------------------o|
C#|---------------------------------5-5-5-5-5-5-5-5-3-3-3-3-3-3-3-3--|

rest

1:29
F#|-------------------------------------------------------------------------|
C#|-------------------------------------------------------------------------|
G#|-1h3-----3h5-------------1h3---------------------------------------------|
C#|-----------------0---------------0-------3---3-3-3---3-3---5-5---5-5-5-5-|
    3 + 4 + 1 + 2 + 3 + 4 + 1 + 2 + 3 + 4 + 1 + 2 + 3 + 4 + 1 + 2 + 3 + 4 + 

F#|-----------------------------------------------------------------|
C#|-----------------------------------------------------------------|
G#|-3h5-------------1h3---------------------------------------------|
C#|---------0---------------0-------3---3-3-3---0-3---0-3-0-3-5-3-0-|
    1 + 2 + 3 + 4 + 1 + 2 + 3 + 4 + 1 + 2 + 3 + 4 + 1 + 2 + 3 + 4 + 

F#|-----------------------------------------------------------------|
C#|-----------------------------------------------------------------|
G#|-3h5-------------1h3---------------------------------------------|
C#|---------0---0-----------0---0---3---3-3-3---3-3---5-5---5-5-5-5-|
    1 + 2 + 3 + 4 + 1 + 2 + 3 + 4 + 1 + 2 + 3 + 4 + 1 + 2 + 3 + 4 + 

F#|-----------------------------------------------------------------|
C#|-----------------------------------------------------------------|
G#|-1---1---1---1---1---1---1---1---0---0---0---0---0-1-0---0-------|
C#|-------------------------------------------------------5---5-3-2-|
    1 + 2 + 3 + 4 + 1 + 2 + 3 + 4 + 1 + 2 + 3 + 4 + 1 + 2 + 3 + 4 + 

1:47
F#|-----------------------------------------------------------------|
C#|-----------------------------------------------------------------|
G#|---------------------0-----------------------------------5-------|
C#|-0---0-3---3-5-----5-----5---3---0-0-0-3-3-3-5-5-5-3-5-3---------|
    1   +   2   +   3   +   4   +   1   +   2   +   3   +   4   +

F#|-----------------------------------------------------------------|
C#|-----------------------------------------------------------------|
G#|---------------------0-0---------5-------5---5-------5---5-------|
C#|-0-0-0-3-3-3-5-5-5-5-----5-5-3-3---5-5-5---5---5-5-5---5---5-5-5-|
    1   +   2   +   3   +   4   +   1   +   2   +   3   +   4   +

1:55
F#|-----------------------------------------------------------------|
C#|-----------------------------------------------------------------|
G#|---------------------0-0---------------------------------5-5-5---|
C#|-0-0-0-3-3-3-5-5-5-5-----5-5-3-3-0-0-0-3-3-3-5-5-5-3-5-3---------|
    1   +   2   +   3   +   4   +   1   +   2   +   3   +   4   +

F#|--------------------------------------------------------------------|
C#|--------------------------------------------------------------------|
G#|---------------------0-0--------------------------------------------|
C#|-0-0-0-3-3-3-5-5-5-5-----5-5-3-3-0-0-----0---0-0---------12--12-12\-|
    1   +   2   +   3   +   4   +   1   +   2   +   3   +   4   +

2:05
F#|------------------------------------------------------------------|
C#|o-----------------------------------------------------------------|
G#|o-----------------------------------------------------------------|
C#|--0-------------------------------3-------------------------------|
     1   +   2   +   3   +   4   +   1   +   2   +   3   +   4   +

F#|------------------------------------------------------------------|
C#|-----------------------------------------------------------------o|
G#|---------------------------------1---------------0---------------o|
C#|-0----------------------------------------------------------------|
    1   +   2   +   3   +   4   +   1   +   2   +   3   +   4   +

rest

2:27
F#|-------------------------------------------------------------------------|
C#|-------------------------------------------------------------------------|
G#|-1h3-----3h5-------------1h3---------------------------------------------|
C#|-----------------0---------------0-------3---3-3-3---3-3---5-5---5-5-5-5-|
    3 + 4 + 1 + 2 + 3 + 4 + 1 + 2 + 3 + 4 + 1 + 2 + 3 + 4 + 1 + 2 + 3 + 4 + 

F#|-----------------------------------------------------------------|
C#|-----------------------------------------------------------------|
G#|-3h5-------------1h3---------------------------------------------|
C#|---------0---------------0-------3-3-3-3-3-3-0-3---0-3-0-3-5-3-0-|
    1 + 2 + 3 + 4 + 1 + 2 + 3 + 4 + 1 + 2 + 3 + 4 + 1 + 2 + 3 + 4 + 

F#|-----------------------------------------------------------------|
C#|-----------------------------------------------------------------|
G#|-3h5-------------1h3---------------------------------------------|
C#|---------0---0-----------0-0-0---3---3-3-3---3-3---5-5---5-5-5-5-|
    1 + 2 + 3 + 4 + 1 + 2 + 3 + 4 + 1 + 2 + 3 + 4 + 1 + 2 + 3 + 4 + 

F#|-----------------------------------------------------------------|
C#|-----------------------------------------------------------------|
G#|-1-1-1-1-1-1-1-1-1-1-1-1-1-1-1-1-0-0-0-0-0-0-0-0-0-1-0---0-------|
C#|-------------------------------------------------------5---5-3-2-|
    1 + 2 + 3 + 4 + 1 + 2 + 3 + 4 + 1 + 2 + 3 + 4 + 1 + 2 + 3 + 4 + 

2:45
F#|-----------------------------------------------------------------|
C#|-----------------------------------------------------------------|
G#|-3-5-5-5---------1-3-3-3-----------------------------------------|
C#|---------0---------------0-0-0---3---3-3-3---3-3---5-5---5-5-5-5-|
    1 + 2 + 3 + 4 + 1 + 2 + 3 + 4 + 1 + 2 + 3 + 4 + 1 + 2 + 3 + 4 + 

F#|-----------------------------------------------------------------|
C#|-----------------------------------------------------------------|
G#|-3h5-------------1h3---------------------------------------------|
C#|---------0---------------0---0---3---3-3-3---0-3---0-3-0-3-5-3-0-|
    1 + 2 + 3 + 4 + 1 + 2 + 3 + 4 + 1 + 2 + 3 + 4 + 1 + 2 + 3 + 4 + 

F#|-----------------------------------------------------------------|
C#|-----------------------------------------------------------------|
G#|-3h5-------------1h3---------------------------------------------|
C#|---------0---0-----------0---0---3---3-3-3---3-3---5-5---5-5-5-5-|
    1 + 2 + 3 + 4 + 1 + 2 + 3 + 4 + 1 + 2 + 3 + 4 + 1 + 2 + 3 + 4 + 

F#|-----------------------------------------------------------------|
C#|-----------------------------------------------------------------|
G#|-1---1---1---1---1---1---1---1---0---0---0---0---0-1-0---0-------|
C#|-------------------------------------------------------5---5-3-2-|
    1 + 2 + 3 + 4 + 1 + 2 + 3 + 4 + 1 + 2 + 3 + 4 + 1 + 2 + 3 + 4 + 

3:02
F#|-----------------------------------------------------------------|
C#|-----------------------------------------------------------------|
G#|---------1-------0-----------------------1-------0---------------|
C#|-0-----------------------5-------3-----------------------5-------|
    1 + 2 + 3 + 4 + 1 + 2 + 3 + 4 + 1 + 2 + 3 + 4 + 1 + 2 + 3 + 4 + 

F#|---------------------------------------------------------------------|
C#|---------------------------------------------------------------------|
G#|-5-------1-------0-----------------------1-------0-------------------|
C#|-------------------------5-------3-----------------------2-------0---|
    1 + 2 + 3 + 4 + 1 + 2 + 3 + 4 + 1 + 2 + 3 + 4 + 1 + 2 + 3 + 4 + 

            
            
Suggest correction
Creating personal tab
Creating personal tab
You can edit any tab online and save it as your Personal.

You can edit, replace or remove any tab part or add personal notes – all changes will be seen only by you.

Personal tabs can be accessed anytime from any device, even offline.
Learn more »
Give kudos to tab author, rate the tab!
1 2 3 4 5
comments
print report bad tab
guest
You may want to rate the tab now too:
select rating
Wanna post a correction for this tab? Suggest correction