Oops, an error
Loading. Please wait.

We Stitch These Wounds tab

version 4
version 4
13,367 views 1 this week
3 commentsread comments
1 2 3 4 5
x 4
add to favorites
×
Save as Personal and add changes to this tab that will be seen only by you. Learn more ›
×
You can save this tab as Personal to edit and correct it or add notes. All changes will be seen only by you. Learn more »
launch autoscroll
font size
0
reset
how to read this tab
guitar tuner
edit
Autoscroll
slow
fast
+/-
esc
set tempo
stop
Artist: Black Veil Brides
Song: We Stitch These Wounds
Album: We Stitch These Wounds

Intro x4
e|---------------------------------|---------------------------------|
B|---------------------------------|---------------------------------|
G|-4-------------------------------|-4-----------2---2-2-2-2-2-2-2-2-|
D|-4-----------2---2-2-2-2-2-2-2-2-|-2-----------2---2-2-2-2-2-2-2-2-|
A|-2-----------2---2-2-2-2-2-2-2-2-|-2-----------2---2-2-2-2-2-2-2-2-|
D|-2-----222-2-2---2-2-2-2-2-2-2-2-|-------222-2---------------------|

Break (Guitar 1)
e|---------------------------------|---------------------------------|
B|---------------------------------|---------------------------------|
G|---------------------------------|---------------------------------|
D|-----5---4-----2---4---5-4---2---|-----5---4-----2---4---4h5p4-2-4-|
A|---------------------------------|---------------------------------|
D|-2-2---2---2-2---2---2-----2---2-|-0-0---0---0-0---0---0-----------|
(Guitar 2)
e|---------------------------------|---------------------------------|
B|---------------------------------|---------------------------------|
G|---------------------------------|---------------------------------|
D|-2~------------------------------|-0-0-----------------------------|
A|-2~------------------------------|-0-0-----------------------------|
D|-2~------------------------------|-0-0-----------------------------|

(Guitar 1)
e|---------------------------------|---------------------------------|
B|---------------------------------|---------------------------------|
G|---------------------------------|---------------------------------|
D|-----5---4-----2---4---5-4---2---|-0-0---------0-0-----------------|
A|---------------------------------|-0-0---------0-0-------10^-------|
D|-2-2---2---2-2---2---2-----2---2-|-0-0---------0-0-----------------|
(Guitar 2)
e|---------------------------------|---------------------------------|
B|---------------------------------|---------------------------------|
G|---------------------------------|---------------------------------|
D|-2~------------------------------|-0-0---------0-0-----------------|
A|-2~------------------------------|-0-0---------0-0-----------------|
D|-2~------------------------------|-0-0---------0-0-----------------|

Verse x2(Guitar 1)
e|---------------------------------|---------------------------------|
B|---------------------------------|---------------------------------|
G|---------------------------------|---------------------------------|
D|-----5---4-----2---4---5-4---2---|-----5---4-----2---4---4h5p4-2-4-|
A|---------------------------------|---------------------------------|
D|-2-2---2---2-2---2---2-----2---2-|-0-0---0---0-0---0---0-----------|
(Guitar 2)
e|---------------------------------|---------------------------------|
B|---------------------------------|---------------------------------|
G|---------------------------------|---------------------------------|
D|-2-2-----------2-----------------|-0-0-----------0-----------------|
A|-2-2-----------2-----------------|-0-0-----------0-----------------|
D|-2-2-------222-2-----------------|-0-0-------000-0-----------------|

(Guitar 1)
e|---------------------------------|---------------------------------|
B|---------------------------------|---------------------------------|
G|---------------------------------|---------------------------------|
D|-----5---4-----2---4---5-4---2---|-----5---4-----2---4-----4h5-5h7-|
A|---------------------------------|---------------------------------|
D|-2-2---2---2-2---2---2-----2---2-|-0-0---0---0-0---0---0-0---------|
(Guitar 2)
e|---------------------------------|---------------------------------|
B|---------------------------------|---------------------------------|
G|---------------------------------|---------------------------------|
D|-2-2-----------2-----------------|-0-0-----------0-----------------|
A|-2-2-----------2-----------------|-0-0-----------0-----------------|
D|-2-2-------222-2-----------------|-0-0-------000-0-----------------|

Chorus x2 (Guitar 1)
e|---------------------------------|---------------------------------|
B|---------------------------------|---------------------------------|
G|-------------4~------------------|-------------7-------------------|
D|-2~------2-2-2~------2---2~------|-5~------5-5-5----/9-9-9-9-7-7---|
A|-2~------2-2-2~------2---2~------|-5~------5-5-5-------------------|
D|-2~------2-2-2~------2---2~------|-5~------5-5-5-------------------|
(Guitar 2)
e|---------------------------------|---------------------------------|
B|---------------------------------|---------------------------------|
G|-------------4~------------------|-------------7-------------------|
D|-2~----------2~------2---2~------|-5~------5-5-5----/5-5-5-5-4-4---|
A|-2~------2-2-2~------2---2~------|-5~------5-5-5-------------------|
D|-2~------2-2-2~------2---2~------|-5~------5-5-5-------------------|

(Both Guitars)
e|---------------------------------|---------------------------------|
B|---------------------------------|---------------------------------|
G|---------------------------------|---------------------------------|
D|-0~----------0~----------0-0-----|-0~----------0~----------0---0---|
A|-0~------0-0-0~----------0-0-----|-0~------0-0-0~----------0---0---|
D|-0~------0-0-0~----------0-0-----|-0~------0-0-0~----------0---0---|

Bridge x2 (Guitar 1)
e|---------------------------------|---------------------------------|
B|---------------------------------|---------------------------------|
G|---------------------------------|---------------------------------|
D|-5~------4-0-2~------0---2~------|-5~------7---4~------------------|
A|---------------------------------|---------------------------------|
D|---------------------------------|---------------------------------|
(Guitar 2)
e|---------------------------------|---------------------------------|
B|---------------------------------|---------------------------------|
G|-4-------------------------------|-4-----------2---2-2-2-2-2-2-2-2-|
D|-4-----------2---2-2-2-2-2-2-2-2-|-2-----------2---2-2-2-2-2-2-2-2-|
A|-2-----------2---2-2-2-2-2-2-2-2-|-2-----------2---2-2-2-2-2-2-2-2-|
D|-2-----222-2-2---2-2-2-2-2-2-2-2-|-------222-2---------------------|

Verse x3

Chorus x4

Solo x2 (Guitar 1)
e|---------------------------------|---------------------------------|
B|---------------------------------|---------------------------------|
G|-----------4p6h7p6---------6h7h9-|-7--------------/9---7-6-7p6-6---|
D|-2-------------------------------|---------------------------------|
A|-2-------------------------------|---------------------------------|
D|-2-------------------------------|---------------------------------|
(Guitar 2)
e|---------------------------------|---------------------------------|
B|---------------------------------|---------------------------------|
G|---------------------------------|---------------------------------|
D|-2---------4h6h7p6---------6h7h9-|-7--------------/9---7-6-7p6-6---|
A|-2-------------------------------|---------------------------------|
D|-2-------------------------------|---------------------------------|

Solo part 2 x2 (Guitar 1)
e|---------------------------------|---------------------------------|
B|-----------5h7h8p7--------7h8h10-|-8--------------/10--8-7-8p7-7---|
G|---------------------------------|---------------------------------|
D|-2-------------------------------|---------------------------------|
A|-2-------------------------------|---------------------------------|
D|-2-------------------------------|---------------------------------|
(Guitar 2)
e|---------------------------------|---------------------------------|
B|---------------------------------|---------------------------------|
G|-----------4h6h7p6---------6h7h9-|-7--------------/9---7-6-7p6-6---|
D|-2-------------------------------|---------------------------------|
A|-2-------------------------------|---------------------------------|
D|-2-------------------------------|---------------------------------|

Bridge (with phaser)
e|---------------------------------|---------------------------------|
B|---------------------------------|---------------------------------|
G|---------------------------------|---------------------------------|
D|-2-2-2-2-2-2-2-2-4-4-4-4-4-4-4-4-|-5-5-5-5-5-5-5-5-7-7-7-5-5-5-4-5-|
A|-2-2-2-2-2-2-2-2-4-4-4-4-4-4-4-4-|-5-5-5-5-5-5-5-5-7-7-7-5-5-5-4-5-|
D|-2-2-2-2-2-2-2-2-4-4-4-4-4-4-4-4-|-5-5-5-5-5-5-5-5-7-7-7-5-5-5-4-5-|

Chorus x4

Outro(Guitar 1)
e|---------------------------------|---------------------------------|
B|---------------------------------|---------------------------------|
G|---------------------------------|---------------------------------|
D|-----5---4-----2---4---5-4---2---|-----5---4-----2---4---4h5p4-2-4-|
A|---------------------------------|---------------------------------|
D|-2-2---2---2-2---2---2-----2---2-|-0-0---0---0-0---0---0-----------|
(Guitar 2)
e|---------------------------------|---------------------------------|
B|---------------------------------|---------------------------------|
G|---------------------------------|---------------------------------|
D|-2-2-----2-2-----2-2-----2-2-----|-0-0-----0-0-----0-0-----0-0-----|
A|-2-2-----2-2-----2-2-----2-2-----|-0-0-----0-0-----0-0-----0-0-----|
D|-2-2-----2-2-----2-2-----2-2-----|-0-0-----0-0-----0-0-----0-0-----|

(Guitar 1)
e|---------------------------------|---------------------------------|
B|---------------------------------|---------------------------------|
G|---------------------------------|---------------------------------|
D|-----5---4-----2---4---5-4---2---|-----5---4-----2---4-----4h5-5h7-|
A|---------------------------------|---------------------------------|
D|-2-2---2---2-2---2---2-----2---2-|-0-0---0---0-0---0---0-0---------|
(Guitar 2)
e|---------------------------------|---------------------------------|
B|---------------------------------|---------------------------------|
G|---------------------------------|---------------------------------|
D|-2-2-----2-2-----2-2-----2-2-----|-0-0-----0-0-----0-0-----0-0-----|
A|-2-2-----2-2-----2-2-----2-2-----|-0-0-----0-0-----0-0-----0-0-----|
D|-2-2-----2-2-----2-2-----2-2-----|-0-0-----0-0-----0-0-----0-0-----|

(Both Guitars)
e|---------------------------------|---------------------------------|
B|---------------------------------|---------------------------------|
G|---------------------------------|---------------------------------|
D|-2-2-----2-2-----2-2-----2-2-----|-0-0-----0-0-----0-0-----0-0-----|
A|-2-2-----2-2-----2-2-----2-2-----|-0-0-----0-0-----0-0-----0-0-----|
D|-2-2-----2-2-----2-2-----2-2-----|-0-0-----0-0-----0-0-----0-0-----|

(Guitar 1)
e|---------------------------------|---------------------------------|
B|---------------------------------|---------------------------------|
G|---------------------------------|---------------------------------|
D|-2-2-----2-2-----2-2-----2-2-----|-----5---4-----2---4-----4h5-5h7-|
A|-2-2-----2-2-----2-2-----2-2-----|---------------------------------|
D|-2-2-----2-2-----2-2-----2-2-----|-0-0---0---0-0---0---0-0---------|
(Guitar 2)
e|---------------------------------|---------------------------------|
B|---------------------------------|---------------------------------|
G|---------------------------------|---------------------------------|
D|-2-2-----2-2-----2-2-----2-2-----|-0-0-----0-0-----0-0-----0-0-----|
A|-2-2-----2-2-----2-2-----2-2-----|-0-0-----0-0-----0-0-----0-0-----|
D|-2-2-----2-2-----2-2-----2-2-----|-0-0-----0-0-----0-0-----0-0-----|

(Both Guitars)
e|---------------------------------|
B|---------------------------------|
G|---------------------------------|
D|-2-2---------2-2-----------------| Tabbed By: Ryan Wakerell
A|-2-2---------2-2-----------------| 
D|-2-2---------2-2-----------------| End

            
            
Suggest correction
Creating personal tab
Creating personal tab
You can edit any tab online and save it as your Personal.

You can edit, replace or remove any tab part or add personal notes – all changes will be seen only by you.

Personal tabs can be accessed anytime from any device, even offline.
Learn more »
comments
print report bad tab
3 comments total.
0 reply
AsTheWorldDies 86 Feb 10, 2011 12:45 AM

Great song. Though, at the begining of the solo you put
G|-4p6h7p6-| xD
I don't think it's possible to pull off from four to six xD

But other then that this seems like a great tab (:

0 reply
BassFreak102 510 Feb 10, 2011 10:22 AM

hahaha oops :P

0 reply
X_SaTyRiCoN_X 31 Feb 24, 2011 10:32 AM

hey bro u forgot this xd

intro

Intro x4 (guitar 2)
e|----------------------------|-----------------------------------|
B|----------------------------|-----------------------------------|
G|-4--------------12--11--11--|-4-----------2----2-2--12--11--11--|
D|-4-----------2--------------|-2-----------2----2-2--------------|
A|-2-----------2--------------|-2-----------2----2-2--------------|
D|-2-----222-2-2--------------|-------222-2-----------------------|

break harmonic after intro isnt A|--10^--| is e|---13^--|

Bridge x2 (Guitar 1)
e|---------------------------------|---------------------------------|
B|---------------------------------|---------------------------------|
G|-9~------7-9-7~------4---7~------|-12~-----11--11------------------|
D|---------------------------------|---------------------------------|
A|---------------------------------|---------------------------------|
D|---------------------------------|---------------------------------|

thats my correction of your tab xd
u didnt make a bad tab it was pro
great song

guest
You may want to rate the tab now too:
select rating
Wanna post a correction for this tab? Suggest correction