Oops, an error
Loading. Please wait.

Grace tab

22 views 1 this week
no commentswrite comment
1 2 3 4 5
2 more votes to show rating
add to favorites
×
Save as Personal and add changes to this tab that will be seen only by you. Learn more ›
×
You can save this tab as Personal to edit and correct it or add notes. All changes will be seen only by you. Learn more »
launch autoscroll
font size
0
reset
how to read this tab
guitar tuner
edit
Autoscroll
slow
fast
+/-
esc
set tempo
stop
About this tab version
Here is the guitar tab for the song "Grace" from the hard rock/stoner rock band Black Vulpine which is included in their Demo-EP, released on 2013. The tab includes both band guitars. Was this info helpful? Yes No
Artist: Black Vulpine
Song: Grace
Album: Demo EP

This video helped me a lot to write this tab- 
https://www.youtube.com/watch?v=b25Mo06nSs8&list=PLRfqcVejuhVG3zI5E94hzjKL8SobAxXa_

[Intro]
(Guitar 1)
e|--------------------------|
B|--------------------------|
G|--------------------------|
D|--------------------------|
A|--12--12--12--12h-13-11---|
D|--(0)---------------------|
                             (x3)
e|--------------------------|
B|--------------------------|
G|--------------------------|
D|--------------------------|
A|--12br----12--12h-13-11---|
D|--(0)---------------------|
                             (x1)
e|--------------------------|-------------------------|
B|--------------------------|-------------------------|
G|--------------------------|-------------------------|
D|---------------------12---|-------------------------|
A|--/12--12--12--12h-13-----|--12--12--12--10--8------|
D|---(0)--------------------|-------------------------|
                                                       (x2)
e|--------------------------|-------------------------|------------------------|--------------------|
B|--------------------------|-------------------------|------------------------|--------------------|
G|--------------------------|-------------------------|------------------------|--------------------|
D|--------------------------|----------------------15-|---------------------12-|--------------------|
A|--/15--15--15--15h-17--15-|--14br--14--14--14h-15---|--12--12--12--12h-13----|--12--12--12--10--8-|
D|---(0)--------------------|-------------------------|------------------------|--------------------|
                                                                                                    (x1)
(Guitar 2)
(Feedback) 
e|-------|-------|-------|-----------|--------|--------|--------|--------|
B|-------|-------|-------|-----------|--------|--------|--------|--------|
G|-------|-------|-------|-----------|--------|--------|--------|--------|
D|--(2)--|--(2)--|--15---|-------14--|--\12---|--(12)--|--(12)--|--(12)--|
A|-------|-------|-------|-----------|--------|--------|--------|--------|
D|-------|-------|-------|-----------|--------|--------|--------|--------|
                                                                          (x1)
e|-------|-------|-------|-------------|
B|-------|-------|-------|-------------|
G|-------|-------|-------|---------17--|
D|--17---|--(17)-|----16-|--16h-17-----|
A|-------|-------|-------|-------------|
D|-------|-------|-------|-------------|
                                        (x1)

[Verse 1]
(Guitar 1)
e|--------------------------|-------------------------|
B|--------------------------|-------------------------|
G|--------------------------|-------------------------|
D|---------------------12---|-------------------------|
A|--/12--12--12--12h-13-----|--12--12--12--10--8------|
D|---(0)--------------------|-------------------------|
                                                       (x2)
e|--------------------------|-------------------------|------------------------|--------------------|
B|--------------------------|-------------------------|------------------------|--------------------|
G|--------------------------|-------------------------|------------------------|--------------------|
D|--------------------------|----------------------15-|---------------------12-|--------------------|
A|--/15--15--15--15h-17--15-|--14br--14--14--14h-15---|--12--12--12--12h-13----|--12--12--12--10--8-|
D|---(0)--------------------|-------------------------|------------------------|--------------------|
                                                                                                    (x1)
e|--------------------------|-------------------------|
B|--------------------------|-------------------------|
G|--------------------------|-------------------------|
D|---------------------12---|-------------------------|
A|--12--12--12--12h-13------|--12--12--12--10--8------|
D|--(0)---------------------|-------------------------|
                                                       (x2)
e|--------------------------|-------------------------|------------------------|--------------------|
B|--------------------------|-------------------------|------------------------|--------------------|
G|--------------------------|-------------------------|------------------------|--------------------|
D|--------------------------|----------------------15-|---------------------12-|--------------------|
A|--/15--15--15--15h-17--15-|--14br--14--14--14h-15---|--12--12--12--12h-13----|--------------------|
D|---(0)--------------------|-------------------------|------------------------|--------------------|
                                                                                                     (x1)
(Guitar 2)
e|------|
B|------|
G|--19--|
D|------|
A|------|
D|------|
         (x1)
(After that there is rest for 15 bars and then:)
e|-------------------------|
B|--10---10---10---10------|
G|--12b--12b--12b--12br-10-|
D|-------------------------|
A|-------------------------|
D|-------------------------|
                            (x1)

[Pre-Chorus 1]
(Guitar 1)
e|--------------|--------------|
B|--------------|--------------|
G|--------------|--------------|
D|--------------|-----------8--|
A|--------------|--------------|
D|--0-0-0-13-11-|--0-0-0--4----|
                              
e|--------------|--------------|--------------|--------------|
B|--------------|--------------|--------------|--------------|
G|--------------|--------------|--------------|--------------|
D|--------------|-----------4--|--------------|--------------|
A|--------------|--------------|--------------|--------------|
D|--0-0-0--5--3-|--0-0-0--1----|--0-0-0--5--3-|--0-0-0--1--4-|
                                                              (x1)

(Guitar 2)
e|--------------|--------------|--------------|--------------|
B|--------------|--------------|--------------|--------------|
G|--------------|--------------|--------------|--------------|
D|-----------11-|--------11----|-----------11-|--------11-14-|
A|--------13----|-----------13-|--------13----|--------------|
D|--0-0-0-------|--0-0-0-------|--0-0-0-------|--0-0-0-------|
                                                              (x1)  
e|--------------|--------------|
B|--------------|--------------|
G|--------------|--------------|
D|--------------|--------------|
A|--------13-12-|--------10-12-|
D|--0-0-0-------|--0-0-0-------|
                                (x2)

[Chorus 1]
(Guitar 1)
e|--------------|--------------|--------------|--------------|
B|--------------|--------------|--------------|--------------|
G|----7-----7---|----7-----7---|---(7)---(7)--|---(7)---(7)--|
D|----7-----7---|----7-----7---|----8-----8---|----8-----8---|
A|----5-----5---|----5-----5---|----5-----5---|----5-----5---|
D|--0-----0---0-|--0-----0---0-|--5-----5---5-|--5-----5---5-|
                                                              
e|--------------|--------------|--------------|--------------|
B|--------------|--------------|--------------|--------------|
G|----7-----7---|----7-----7---|---(7)---(7)--|---(7)---(7)--|
D|----7-----7---|----7-----7---|----8-----8---|----8-----8---|
A|----5-----5---|----5-----5---|----5-----5---|----5-----5---|
D|--0-----0---0-|--0-----0---0-|--5-----5---5-|--7-----5---5-|

e|--------------|--------------|--------------|--------------|
B|--------------|--------------|--------------|--------------|
G|----7-----7---|----7-----7---|---(7)---(7)--|---(7)---(7)--|
D|----7-----7---|----7-----7---|----8-----8---|----8-----8---|
A|----5-----5---|----5-----5---|----5-----5---|----5-----5---|
D|--0-----0---0-|--0-----0---0-|--5-----5---5-|--5-----5---5-|
                                                              
e|--------------|--------------|--------------|--------------|
B|--------------|--------------|--------------|--------------|
G|----7-----7---|----7-----7---|---(6)---(6)--|---(6)---(6)--|
D|----7-----7---|----7-----7---|----7-----7---|----7-----7---|
A|----5-----5---|----5-----5---|----4-----4---|----4-----4---|
D|--0-----0---0-|--0-----0---0-|--4-----4---4-|--4-----4---4-|
                                                              (x1)

(Guitar 2)
e|--------------|--------------|----------------|----------------|
B|--------------|--------------|----------------|----------------|
G|--------------|--------------|----------------|----------------|
D|----12---12---|----12---12---|-----12----12---|-----12----12---|
A|--9-----9---9-|--9-----9---9-|--10-----10--10-|--10-----10--10-|
D|--------------|--------------|----------------|----------------|
                                                                  
e|--------------|--------------|----------------|----------------|
B|--------------|--------------|----------------|----------------|
G|--------------|--------------|----------------|----------------|
D|----12---12---|----12---12---|-----12----12---|-----12----12---|
A|--9-----9---9-|--9-----9---9-|--10-----10--10-|--12-----10--10-|
D|--------------|--------------|----------------|----------------|
                                                                  
e|--------------|--------------|----------------|----------------|
B|--------------|--------------|----------------|----------------|
G|--------------|--------------|----------------|----------------|
D|----12---12---|----12---12---|-----12----12---|-----12----12---|
A|--------------|--------------|----------------|----------------|
D|--9-----9---9-|--9-----9---9-|--8------8----8-|--8------8----8-|

e|--------------|--------------|----------------|----------------|
B|--------------|--------------|----------------|----------------|
G|----11---11---|----11---11---|----------------|----------------|
D|----12---12---|----12---12---|-----11---11----|-----11----11---|
A|----12---12---|----12---12---|--12----12---12-|--12-----12-----|
D|--0-----0---0-|--0-----0---0-|----------------|----------------|
                                                                  (x1)
[Verse 2]
(Guitar 1)
e|--------------------------|-------------------------|
B|--------------------------|-------------------------|
G|--------------------------|-------------------------|
D|---------------------12---|-------------------------|
A|--/12--12--12--12h-13-----|--12--12--12--10--8------|
D|---(0)--------------------|-------------------------|
                                                       (x2)
e|--------------------------|-------------------------|------------------------|--------------------|
B|--------------------------|-------------------------|------------------------|--------------------|
G|--------------------------|-------------------------|------------------------|--------------------|
D|--------------------------|----------------------15-|---------------------12-|--------------------|
A|--/15--15--15--15h-17--15-|--14br--14--14--14h-15---|--12--12--12--12h-13----|--12--12--12--10--8-|
D|---(0)--------------------|-------------------------|------------------------|--------------------|
                                                                                                    (x1)
e|--------------------------|-------------------------|
B|--------------------------|-------------------------|
G|--------------------------|-------------------------|
D|---------------------12---|-------------------------|
A|--12--12--12--12h-13------|--12--12--12--10--8------|
D|--(0)---------------------|-------------------------|
                                                       (x2)
e|--------------------------|-------------------------|------------------------|--------------------|
B|--------------------------|-------------------------|------------------------|--------------------|
G|--------------------------|-------------------------|------------------------|--------------------|
D|--------------------------|----------------------15-|---------------------12-|--------------------|
A|--/15--15--15--15h-17--15-|--14br--14--14--14h-15---|--12--12--12--12h-13----|--------------------|
D|---(0)--------------------|-------------------------|------------------------|--------------------|
                                                                                                     (x1)

(Guitar 2)
e|-------|-------|-------|--------|--------|--------|--------|------------|
B|-------|-------|-------|--------|--------|--------|--------|------------|
G|--19---|--(19)-|--17---|--(17)--|--------|--------|--------|---------17-|
D|-------|-------|-------|--------|--17----|--(17)--|--16----|--16h-17----|
A|-------|-------|-------|--------|--------|--------|--------|------------|
D|-------|-------|-------|--------|--------|--------|--------|------------|
                                                                           
e|-------|-------|-------|--------|--------|--------|--------|-------------------------|
B|-------|-------|-------|--------|--------|--------|--------|--10---10---10---10------|
G|--19---|--(19)-|--17---|--(17)--|--------|--------|--------|--12b--12b--12b--12br-10-|
D|-------|-------|-------|--------|--17----|--(17)--|--16----|-------------------------|
A|-------|-------|-------|--------|--------|--------|--------|-------------------------|
D|-------|-------|-------|--------|--------|--------|--------|-------------------------|
                                                                                        (x1)

[Pre-Chorus 2]
(Guitar 1)
e|--------------|--------------|
B|--------------|--------------|
G|--------------|--------------|
D|--------------|-----------8--|
A|--------------|--------------|
D|--0-0-0-13-11-|--0-0-0--4----|
                                 
e|--------------|--------------|--------------|--------------|
B|--------------|--------------|--------------|--------------|
G|--------------|--------------|--------------|--------------|
D|--------------|-----------4--|--------------|--------------|
A|--------------|--------------|--------------|--------------|
D|--0-0-0--5--3-|--0-0-0--1----|--0-0-0--5--3-|--0-0-0--1--4-|
                                                              (x1)

(Guitar 2)
e|--------------|--------------|--------------|--------------|
B|--------------|--------------|--------------|--------------|
G|--------------|--------------|--------------|--------------|
D|-----------11-|--------11----|-----------11-|--------11-14-|
A|--------13----|-----------13-|--------13----|--------------|
D|--0-0-0-------|--0-0-0-------|--0-0-0-------|--0-0-0-------|
                                                              (x1)  
e|--------------|--------------|
B|--------------|--------------|
G|--------------|--------------|
D|--------------|--------------|
A|--------13-12-|--------10-12-|
D|--0-0-0-------|--0-0-0-------|
                                (x2)

[Chorus 2]
(Guitar 1)
e|--------------|--------------|--------------|--------------|
B|--------------|--------------|--------------|--------------|
G|----7-----7---|----7-----7---|---(7)---(7)--|---(7)---(7)--|
D|----7-----7---|----7-----7---|----8-----8---|----8-----8---|
A|----5-----5---|----5-----5---|----5-----5---|----5-----5---|
D|--0-----0---0-|--0-----0---0-|--5-----5---5-|--5-----5---5-|
                                                              
e|--------------|--------------|--------------|--------------|
B|--------------|--------------|--------------|--------------|
G|----7-----7---|----7-----7---|---(7)---(7)--|---(7)---(7)--|
D|----7-----7---|----7-----7---|----8-----8---|----8-----8---|
A|----5-----5---|----5-----5---|----5-----5---|----5-----5---|
D|--0-----0---0-|--0-----0---0-|--5-----5---5-|--7-----5---5-|

e|--------------|--------------|--------------|--------------|
B|--------------|--------------|--------------|--------------|
G|----7-----7---|----7-----7---|---(7)---(7)--|---(7)---(7)--|
D|----7-----7---|----7-----7---|----8-----8---|----8-----8---|
A|----5-----5---|----5-----5---|----5-----5---|----5-----5---|
D|--0-----0---0-|--0-----0---0-|--5-----5---5-|--5-----5---5-|
                                                              
e|--------------|--------------|--------------|--------------|
B|--------------|--------------|--------------|--------------|
G|----7-----7---|----7-----7---|---(6)---(6)--|---(6)---(6)--|
D|----7-----7---|----7-----7---|----7-----7---|----7-----7---|
A|----5-----5---|----5-----5---|----4-----4---|----4-----4---|
D|--0-----0---0-|--0-----0---0-|--4-----4---4-|--4-----4---4-|
                                                              (x1)

(Guitar 2)
e|--------------|--------------|----------------|----------------|
B|--------------|--------------|----------------|----------------|
G|--------------|--------------|----------------|----------------|
D|----12---12---|----12---12---|-----12----12---|-----12----12---|
A|--9-----9---9-|--9-----9---9-|--10-----10--10-|--10-----10--10-|
D|--------------|--------------|----------------|----------------|
                                                                  
e|--------------|--------------|----------------|----------------|
B|--------------|--------------|----------------|----------------|
G|--------------|--------------|----------------|----------------|
D|----12---12---|----12---12---|-----12----12---|-----12----12---|
A|--9-----9---9-|--9-----9---9-|--10-----10--10-|--12-----10--10-|
D|--------------|--------------|----------------|----------------|
                                                                  
e|--------------|--------------|----------------|----------------|
B|--------------|--------------|----------------|----------------|
G|--------------|--------------|----------------|----------------|
D|----12---12---|----12---12---|-----12----12---|-----12----12---|
A|--------------|--------------|----------------|----------------|
D|--9-----9---9-|--9-----9---9-|--8------8----8-|--8------8----8-|

e|--------------|--------------|----------------|----------------|
B|--------------|--------------|----------------|----------------|
G|----11---11---|----11---11---|----------------|----------------|
D|----12---12---|----12---12---|-----11---11----|-----11----11---|
A|----12---12---|----12---12---|--12----12---12-|--12-----12-----|
D|--0-----0---0-|--0-----0---0-|----------------|----------------|
                                                                  (x1)

[Bridge]
(Guitar 1)
e|--------------------|--------------------|--------------------|--------------------|
B|--------------------|--------------------|--------------------|--------------------|
G|--14-14-14-14-14-14-|--14-14-14-14-14-14-|--14-14-14-14-14-14-|--14-14-14-14-14-14-|
D|--12-12-12-12-12-12-|--12-12-12-12-12-12-|--12-12-12-12-12-12-|--12-12-12-12-12-12-|
A|--12-12-12-12-12-12-|--12-12-12-12-12-12-|--12-12-12-12-12-12-|--12-12-12-12-12-12-|
D|--12-12-12-12-12-12-|--12-12-12-12-12-12-|--12-12-12-12-12-12-|--12-12-12-12-12-12-|
                                                                                      
e|--------------------|--------------------|--------------------|--------------------|
B|--------------------|--------------------|--------------------|--------------------|
G|--15-15-15-15-15-15-|--15-15-15-15-15-15-|--15-15-15-15-15-15-|--15-15-15-15-15-15-|
D|--13-13-13-13-13-13-|--13-13-13-13-13-13-|--13-13-13-13-13-13-|--13-13-13-13-13-13-|
A|--13-13-13-13-13-13-|--13-13-13-13-13-13-|--13-13-13-13-13-13-|--13-13-13-13-13-13-|
D|--13-13-13-13-13-13-|--13-13-13-13-13-13-|--13-13-13-13-13-13-|--13-13-13-13-13-13-|
                                                                                      (x2)
e|-------------------------|-------------------------|-------------------------|-------------------------|
B|-------------------------|-------------------------|-------------------------|-------------------------|
G|-(7)-(7)-(7)-(7)-(7)-(7)-|-(7)-(7)-(7)-(7)-(7)-(7)-|-(7)-(7)-(7)-(7)-(7)-(7)-|-(7)-(7)-(7)-(7)-(7)-(7)-|
D|--8---8---8---8---8---8--|--8---8---8---8---8---8--|--8---8---8---8---8---8--|--8---8---8---8---8---8--|
A|--5---5---5---5---5---5--|--5---5---5---5---5---5--|--5---5---5---5---5---5--|--5---5---5---5---5---5--|
D|--5---5---5---5---5---5--|--5---5---5---5---5---5--|--5---5---5---5---5---5--|--5---5---5---5---5---5--|
                                                                                                            
e|--------------------|--------------------|--------------------|--------------------|
B|--------------------|--------------------|--------------------|--------------------|
G|--14-14-14-14-14-14-|--14-14-14-14-14-14-|--14-14-14-14-14-14-|--14-14-14-14-14-14-|
D|--12-12-12-12-12-12-|--12-12-12-12-12-12-|--12-12-12-12-12-12-|--12-12-12-12-12-12-|
A|--12-12-12-12-12-12-|--12-12-12-12-12-12-|--12-12-12-12-12-12-|--12-12-12-12-12-12-|
D|--12-12-12-12-12-12-|--12-12-12-12-12-12-|--12-12-12-12-12-12-|--12-12-12-12-12-12-|

e|-------------------------|-------------------------|-------------------------|-------------------------|
B|-------------------------|-------------------------|-------------------------|-------------------------|
G|-(7)-(7)-(7)-(7)-(7)-(7)-|-(7)-(7)-(7)-(7)-(7)-(7)-|-(7)-(7)-(7)-(7)-(7)-(7)-|-(7)-(7)-(7)-(7)-(7)-(7)-|
D|--8---8---8---8---8---8--|--8---8---8---8---8---8--|--7---7---7---7---7---7--|--7---7---7---7---7---7--|
A|--5---5---5---5---5---5--|--5---5---5---5---5---5--|--5---5---5---5---5---5--|--5---5---5---5---5---5--|
D|--5---5---5---5---5---5--|--5---5---5---5---5---5--|--5---5---5---5---5---5--|--5---5---5---5---5---5--|
                                                                                                          (x1)

(Guitar 2)
e|--------------------|--------------------|--------------------|---------------------|
B|--------------------|--------------------|--------------------|---------------------|
G|--14-14-14-14-14-14-|--14-14-14-14-14-14-|--14-14-14-14-14-14-|--14-14-14-14-14-14--|
D|--12-12-12-12-12-12-|--12-12-12-12-12-12-|--12-12-12-12-12-12-|--12-12-12-12-12-12--|
A|--------------------|--------------------|--------------------|---------------------|
D|--------------------|--------------------|--------------------|---------------------|
                                                                                      
e|--------------------|--------------------|--------------------|---------------------|
B|--------------------|--------------------|--------------------|---------------------|
G|--15-15-15-15-15-15-|--15-15-15-15-15-15-|--17-17-17-17-17-17-|--17-17-17-17-17-17--|
D|--13-13-13-13-13-13-|--13-13-13-13-13-13-|--15-15-15-15-15-15-|--15-15-15-15-15-15--|
A|--------------------|--------------------|--------------------|---------------------|
D|--------------------|--------------------|--------------------|---------------------|
                                                                                    
e|--------------------|--------------------|--------------------|---------------------|
B|--------------------|--------------------|--------------------|---------------------|
G|--14-14-14-14-14-14-|--14-14-14-14-14-14-|--14-14-14-14-14-14-|--14-14-14-14-14-14--|
D|--12-12-12-12-12-12-|--12-12-12-12-12-12-|--12-12-12-12-12-12-|--12-12-12-12-12-12--|
A|--------------------|--------------------|--------------------|---------------------|
D|--------------------|--------------------|--------------------|---------------------|
                                                                                     
e|--------------------|--------------------|--------------------|---------------------|
B|--------------------|--------------------|--------------------|---------------------|
G|--15-15-15-15-15-15-|--15-15-15-15-15-15-|--19-19-19-19-19-19-|--19-19-19-19-19-19--|
D|--13-13-13-13-13-13-|--13-13-13-13-13-13-|--17-17-17-17-17-17-|--17-17-17-17-17-17--|
A|--------------------|--------------------|--------------------|---------------------|
D|--------------------|--------------------|--------------------|---------------------|

e|--------------------|--------------------|--------------------|---------------------|
B|--------------------|--------------------|--------------------|---------------------|
G|--14-14-14-14-14-14-|--14-14-14-14-14-14-|--14-14-14-14-14-14-|--14-14-14-14-14-14--|
D|---x--x--x--x--x--x-|---x--x--x--x--x--x-|---x--x--x--x--x--x-|---x--x--x--x--x--x--|
A|--12-12-12-12-12-12-|--12-12-12-12-12-12-|--12-12-12-12-12-12-|--12-12-12-12-12-12--|
D|--------------------|--------------------|--------------------|---------------------|

e|--------------------|--------------------|--------------------|---------------------|
B|--------------------|--------------------|--------------------|---------------------|
G|--10-10-10-10-10-10-|--10-10-10-10-10-10-|--10--/16--16----16-|--16\-10-------10-10-|
D|---x--x--x--x--x--x-|---x--x--x--x--x--x-|---x----x---x-----x-|---x---x--------x--x-|
A|---8--8--8--8--8--8-|---8--8--8--8--8--8-|---8--/14--14-----8-|--14\--8--------8--8-|
D|--------------------|--------------------|--------------------|---------------------|

e|--------------------|--------------------|--------------------|---------------------|
B|--------------------|--------------------|--------------------|---------------------|
G|--14-14-14-14-14-14-|--14-14-14-14-14-14-|--12-12-12-12-------|---------------------|
D|---x--x--x--x--x--x-|---x--x--x--x--x--x-|---x--x--x--x-------|---------------------|
A|--12-12-12-12-12-12-|--12-12-12-12-12-12-|--10-10-10-10-------|---------------------|
D|--------------------|--------------------|--------------------|---------------------|
                                                                                       (x1)

[Outro]
(Guitar 1)
e|--------------------------|
B|--------------------------|
G|--------------------------|
D|--------------------------|
A|--12--12--12--12h-13-11---|
D|--(0)---------------------|
                             (x3)
e|--------------------------|
B|--------------------------|
G|--------------------------|
D|--------------------------|
A|--12--12--12--12h-13-/17--|
D|--(0)---------------------|
                             (x1)

(Guitar 2) 
e|------|--------|-------|--------|
B|------|--------|-------|--------|
G|------|--------|-------|--------|
D|--15--|--(15)--|--14---|-----12-|
A|------|--------|-------|--------|
D|------|--------|-------|--------|
                                   (x1)


************************************

| x   Dead note
| (n) Ghost note 
| h   Hammer-on
| b   Bend
| br  Bend release
| /   Slide up
| \   Slide down

************************************

            
            
Suggest correction
Creating personal tab
Creating personal tab
You can edit any tab online and save it as your Personal.

You can edit, replace or remove any tab part or add personal notes – all changes will be seen only by you.

Personal tabs can be accessed anytime from any device, even offline.
Learn more »
Give kudos to tab author, rate the tab!
1 2 3 4 5
comments
print report bad tab
guest
You may want to rate the tab now too:
select rating
Wanna post a correction for this tab? Suggest correction