Oops, an error
Loading. Please wait.

Home chords

version 2
version 2

Whole song

493 views 3 this week
no commentswrite comment
1 2 3 4 5
1 last vote to show rating
add to favorites
×
Save as Personal and add changes to this tab that will be seen only by you. Learn more ›
×
You can save this tab as Personal to edit and correct it or add notes. All changes will be seen only by you. Learn more »
launch autoscroll
font size
0
reset
transpose
0
reset
simplify chords
display chords
guitar tuner
edit
Autoscroll
slow
fast
+/-
esc
set tempo
stop
Strumming
There is no strumming pattern for this song yet. and get +5 IQ
-------------------------------------------------------------------------------
                             SONG NAME - Band Name
-------------------------------------------------------------------------------
Tabbed by:
E-mail:

Capo 7th fred

Chords

    Em       D/F#      C/G    G

e|---0--------2---------0-----2----
B|---0--------3---------1-----2----
G|---0--------2---------0-----0----
D|---2--------0---------2-----0----
A|---2--------0---------3-----2----
E|---0--------2---------3-----3----


Verse 1 : 

Em               D/F#m          C/G         Em            D/F#          C/G

Do you see the writings on the wall         The battle's far from being won

Em      D/F#m        C/G                        Em       D/F#m             C/G 

Sorry mothers, your sons must leave home       Be sure as fuck, this means war


Solo : 

      Em               D/F#          C/G      Em                D/F#      C/G
e|---------------------------------------------------------------------------|
B|----3----------------------------------------3-----------------------------|
G|---------2----------2-----4------2-----------------2----------2----4-----2-|
D|---------------5---------------------5-------------------5-----------------|
A|---------------------------------------------------------------------------|
E|---------------------------------------------------------------------------|
    
      Em              D/F#           C/G              Em        D/F#      C/G     
e|---------------------------------------------------------------------------|
B|----3----------------------------------------------------------------------|
G|---------2---------2------4------2--------------2----4---------2-----------|
D|---------------5--------------------5-------5-------------5--------5-5~~~~-|
A|---------------------------------------------------------------------------|
E|---------------------------------------------------------------------------|


Verse 2 :
Em            D/F#         C/G                 Em          D/F#             C/G

My brothers why did you all leave home?      To fight for interests of the lords above?

Em          D/F#           C/G            Em    D/F#           C/G   

I protest this war until dawn        A simple dream against loaded guns


Chorus : 
                Em            D            C/G                     G                    D/F#
And we'll keep fighting and fighting and fighting      'Till the last boy is home, the last boy is home

                Em                        D                       G                   D/F#

And we'll keep fighting and fighting and fighting       'Till the last boy is home, the last boy is home



  Em      D/F#    C/G x4

Solo : 

      Em               D/F#          C/G      Em                D/F#      C/G
e|---------------------------------------------------------------------------|
B|----3----------------------------------------3-----------------------------|
G|---------2----------2-----4------2-----------------2----------2----4-----2-|
D|---------------5---------------------5-------------------5-----------------|
A|---------------------------------------------------------------------------|
E|---------------------------------------------------------------------------|
    
      Em              D/F#           C/G              Em        D/F#      C/G     
e|---------------------------------------------------------------------------|
B|----3----------------------------------------------------------------------|
G|---------2---------2------4------2--------------2----4---------2-----------|
D|---------------5--------------------5-------5-------------5--------5-2~~~~-|
A|---------------------------------------------------------------------------|
E|---------------------------------------------------------------------------|


Verse 3 : 

 Em            D/F#         C/G                 Em          D/F#             C/G

Oh brother, where has all the hope gone?        Please understand that this war can't be won

Em          D/F#           C/G                Em      D/F#           C/G   

You've been trying for too long             I might be wrong, but I still carry on


Chorus : 
                Em            D            C/G                     G                    D/F#
And we'll keep fighting and fighting and fighting      'Till the last boy is home, the last boy is home

                Em                        D                       G                   D/F#

And we'll keep fighting and fighting and fighting       'Till the last boy is home, the last boy is home

Solo : 

      Em            D/F#          C/G        Em                D/F#      C/G
e|-------------------------------------------------------------------------------|
B|----3--------------------------------------3-----------------------------------|
G|---------2--------2-----4------2-----------------2------------2------4-------2-|
D|-------------5---------------------5-------------------5-----------------------|
A|-------------------------------------------------------------------------------|
E|-------------------------------------------------------------------------------|
      
    Brother this is where the hope's gone  All along it's been right in this song
    
      Em              D/F#           C/G              Em        D/F#      C/G     
e|---------------------------------------------------------------------------|
B|----3----------------------------------------------------------------------|
G|---------2---------2------4------2--------------2----4---------2-----------|
D|---------------5--------------------5-------5-------------5--------5-2~~~~-|
A|---------------------------------------------------------------------------|
E|---------------------------------------------------------------------------|
       The world is far from being one   A glimpse of hope is enough to stay strong


Chorus : 
                Em            D            C/G                     G                    D/F#
And we'll keep fighting and fighting and fighting      'Till the last boy is home, the last boy is home

                Em                        D                       G                   D/F#

And we'll keep fighting and fighting and fighting       'Till the last boy is home, the last boy is home

Em      D/F#    C/G x4

Outro : 

      Em               D/F#          C/G      Em                D/F#      C/G
e|---------------------------------------------------------------------------|
B|----3----------------------------------------3-----------------------------|
G|---------2----------2-----4------2-----------------2----------2----4-------|
D|---------------5---------------------5-------------------5--------------5--|
A|---------------------------------------------------------------------------|
E|---------------------------------------------------------------------------|



            
            
Suggest correction
Creating personal tab
Creating personal tab
You can edit any tab online and save it as your Personal.

You can edit, replace or remove any tab part or add personal notes – all changes will be seen only by you.

Personal tabs can be accessed anytime from any device, even offline.
Learn more »
Give kudos to tab author, rate the tab!
1 2 3 4 5
comments
print report bad tab
guest
You may want to rate the tab now too:
select rating
Wanna post a correction for this tab? Suggest correction