Oops, an error
Loading. Please wait.

Saviors Shadow chords

version 2
version 2

Whole song

4,645 views 15 this week
4 commentsread comments
1 2 3 4 5
x 32
add to favorites
×
Save as Personal and add changes to this tab that will be seen only by you. Learn more ›
×
You can save this tab as Personal to edit and correct it or add notes. All changes will be seen only by you. Learn more »
launch autoscroll
font size
0
reset
transpose
0
reset
display chords
guitar tuner
edit
Autoscroll
slow
fast
+/-
esc
set tempo
stop
Strumming
There is no strumming pattern for this song yet. and get +5 IQ
SONG:   SAVIOR'S SHADOW
ARTIST: BLAKE SHELTON
TAB BY: DON CZARSKI
EMAIL:  GUITARZAN7@HOTMAIL.COM

                    
                   SAVIOR'S SHADOW
                    BLAKE SHELTON

INTRO:
   D                              A   D          D
E -----------------------------------------------2---
B -----------------------------------------------3---
G ------------------------------0--------------0-2---
D -0-2h4-4-2---0-2h4-4-2--0-2-4---2---0-0h2h4--------
A ---------------------------------------------------
E ---------------------------------------------------


VERSE:
      D
I'm standing in my Savior's shadow,
               G    D
He is watching over me
   D
I feel the rain, I hear the thunder,
        A       D*
As he cries for me

   D*        D
E -----------2--
B -----------3--
G ---------0-2--
D -0-0h2h4------
A --------------
E --------------

      D
I'm standing in my Savior's shadow,
                     G        D
Grace will lead to where I'm free
   D     
I take his hand, we walk together
                A       D*
And his light shines on me

   D*        D
E -----------2--
B -----------3--
G ---------0-2--
D -0-0h2h4------
A --------------
E --------------


CHORUS:
  A                G        D
Though the devil tried to break me
A               G        D
My sweet Jesus won't forsake me
 D                       
When I'm in my Savior's shadow
      D           A       D*
I'm where I'm supposed to be.

   D*        D
E -----------2--
B -----------3--
G ---------0-2--
D -0-0h2h4------
A --------------
E --------------


VERSE:
      D            
I'm standing in my Savior's shadow,
               G          D
Following his footsteps there,
 D                    
Every mountain, every ocean
          A       D*
Here's my every prayer

   D*        D
E -----------2--
B -----------3--
G ---------0-2--
D -0-0h2h4------
A --------------
E --------------


CHORUS:
  A                G        D
Though the devil tried to break me
A               G        D
My sweet Jesus won't forsake me
 D                       
When I'm in my Savior's shadow
      D           A       D
I'm where I'm supposed to be.


INSTRUMENTAL: 
This part sounds best if 2 guitars are 
playing. One playing the chords I have 
listed and the other playing the solo as
indicated.

GUITAR 1:
(VERSE CHORDS)
D      G D      
D      A D


GUITAR 2:
SOLO: 
NOTE:  This is not 100% correct but sounds
       very close to what is played. 
       Feel free to improvise as needed.        

E ------------------------------------------
B ----------------------------------2-3-----
G -2h4p2-0----------------------2-4-----2---
D ---------4---2-0-2h4---4-2-0--------------
A ------------------------------------------
E ------------------------------------------

                                     A D
E ----2-2-2-0----------2-0-------------2--
B ----3-3-----3------------3---------2-3--
G --2-2-2-------2----2-------2--0-2--2-2--
D -----------------------------------2----
A ----------------------------------------
E ----------------------------------------


CHORUS:
  A                G        D
Though the devil tried to break me
A               G        D
My sweet Jesus won't forsake me
 D                       
When I'm in my Savior's shadow
      D           A       D*
I'm where I'm supposed to be.

   D*        D
E -----------2--
B -----------3--
G ---------0-2--
D -0-0h2h4------
A --------------
E --------------


OUTRO:
 D                         
When I'm in my Savior's shadow
     D          A       G     D
I'm who I'm supposed to be.




            
            
Suggest correction
Creating personal tab
Creating personal tab
You can edit any tab online and save it as your Personal.

You can edit, replace or remove any tab part or add personal notes – all changes will be seen only by you.

Personal tabs can be accessed anytime from any device, even offline.
Learn more »
comments
print report bad tab
4 comments total. Showing first comments.
0 reply
DON CZARSKI [tm] 28,143 Apr 30, 2016 08:31 AM

The above chord tab is in standard tuning... That was the way it was requested.
I have seen 4 people cover this song on You Tube and each person plays it a
Different way using different chords. One person places a Bm chord in the last
line of the chorus where I have a D chord over the word "where" ..I do not here
it that way and believe it to remain the D chord. I based my tabb on the way I
hear and play the song.

0 reply
DON CZARSKI [tm] 28,143 Apr 30, 2016 08:32 AM, edited at 02:06 pm

By the way I placed the little fill that is played after the verse and the chorus If you wish to play that.
START playing that where you see the D*.....

0 reply
austingrossrbf 26 May 02, 2016 11:15 AM

Thanks a gizillion man. Awesome!

guest
You may want to rate the tab now too:
select rating
Wanna post a correction for this tab? Suggest correction