Oops, an error
Loading. Please wait.

Gated intro tab

920 views 1 this week
1 commentread comment
1 2 3 4 5
1 last vote to show rating
add to favorites
×
Save as Personal and add changes to this tab that will be seen only by you. Learn more ›
×
You can save this tab as Personal to edit and correct it or add notes. All changes will be seen only by you. Learn more »
launch autoscroll
font size
0
reset
how to read this tab
guitar tuner
edit
Autoscroll
slow
fast
+/-
esc
set tempo
stop
Author
Difficulty
Bleed the Sky: Gated 

Drop B (B,F#,B,E,G#,C#)

This is a very rough tab just including the main gist of what their playing 
i'm pretty sure its mainly correct



Part A         (A lot of reverb and Delay)

(They change between the two parts and then they repeat)
                 
-----------------------------------------------|
-----------------------------------------------|
-----------------------------------------------|
---88--55-4-44-4444444---99--55-2-22-222222----|
-----------------------------------------------|
-----------------------------------------------|

-----------------------------------------------|
-----------------------------------------------|
-----------------------------------------------|
---88--55-4-44-4444444---99--55-2-22-222220-0--|
-----------------------------------------------|
-----------------------------------------------|

(they end with this before power chords come in)

----------------------------------------------|
----------------------------------------------|
----------------------------------------------|
---88--55-4-44-4444444---88--55-4-44-4444444--|
----------------------------------------------|
----------------------------------------------|
Part B

These are the frets there playing for the power chords and palm mute parts
(just listen for timing and correct strumming patterns)

----------------------------------------------------------------------------------|
----------------------------------------------------------------------------------|
----------------------------------------------------------------------------------|
44-44-44444444--22-22-22222222----------------------------------------------------|
44-44-44444444--22-22-22222222----------------------------------------------------|
44-44-44444444--22-22-22222222----------------------------------------------------|

----------------------------------------------------------------------------------|
----------------------------------------------------------------------------------|
----------------------------------------------------------------------------------|
44-44-44444444--22-22-22222222--00-00-00000000------------------------------------|
44-44-44444444--22-22-22222222--00-00-00000000------------------------------------|
44-44-44444444--22-22-22222222--00-00-00000000------------------------------------|






            
            
Suggest correction
Creating personal tab
Creating personal tab
You can edit any tab online and save it as your Personal.

You can edit, replace or remove any tab part or add personal notes – all changes will be seen only by you.

Personal tabs can be accessed anytime from any device, even offline.
Learn more »
Give kudos to tab author, rate the tab!
1 2 3 4 5
comments
print report bad tab
1 comment total.
0 reply
rebofthetemple 61 Nov 30, 2007 08:50 PM

except for the tuning (drop C i believe), sounds spot on

guest
You may want to rate the tab now too:
select rating
Wanna post a correction for this tab? Suggest correction