Oops, an error
Loading. Please wait.

Brother My Brother bass

1,082 views 1 this week
no commentswrite comment
1 2 3 4 5
2 more votes to show rating
add to favorites
×
Save as Personal and add changes to this tab that will be seen only by you. Learn more ›
×
You can save this tab as Personal to edit and correct it or add notes. All changes will be seen only by you. Learn more »
launch autoscroll
font size
0
reset
guitar tuner
edit
Autoscroll
slow
fast
+/-
esc
set tempo
stop
Difficulty
        ========================
         Blessed Union of Souls
           Brother, My Brother
               Pokemon 3
        ========================
INTRO

    A2                                  D9
G||-----------------|-----------------|-----------------|-----------------|
D||-----------------|-----------------|-----------------|-----------------|
A||-----------------|-----------------|-5-5-------------|-5-5-------------|x2
E||-5-5-------------|-5-5-------------|-----------------|-----------------|
    1 + 2 + 3 + 4 +   1 + 2 + 3 + 4 +   1 + 2 + 3 + 4 +   1 + 2 + 3 + 4 +


CHORUS (Vocals Starts)

    A2                                  D9
G||-----------------|-----------------|-----------------|-----------------|
D||-----------------|-----------------|-----------------|-----------------|
A||-----------------|-----------------|-5-5-------------|-5-5-------------|x2
E||-5-5-------------|-5-5-------------|-----------------|-----------------|

    G                 D9                A2
G||-----------------|-----------------|-----------------|-----------------|
D||-----------------|-----------------|-----------------|-----------------|
A||-----------------|-5-5-------------|-----------------|-----------------|
E||-3-3-------------|-----------------|-5-5-----5-5-----|-5-5-----5-5-----|


VERSE

    A2                                  D9
G||-----------------|-----------------|-----------------|-----------------|
D||-----------------|-----------------|-----------------|-----------------|
A||-----------------|-----------------|-5-5-----5-5-----|-5-5-----5-5-----|x2
E||-5-5-----5-5-----|-5-5-----5-5-----|-----------------|-----------------|
    1 + 2 + 3 + 4 +   1 + 2 + 3 + 4 +   1 + 2 + 3 + 4 +   1 + 2 + 3 + 4 +

    F#m               D9                Bm                E
G||-----------------|-----------------|-----------------|-----------------|
D||-----------------|-----------------|-----------------|-----------------|
A||-----------------|-5-5-----5-5-----|-2-2-----2-2-----|-----------------|
E||-2-2-----2-2-----|-----------------|-----------------|-0-0-----0-0-----|    


CHORUS

    A2                                  D9
G||-----------------|-----------------|-----------------|-----------------|
D||-----------------|-----------------|-----------------|-----------------|
A||-----------------|-----------------|-5-5-----5-5-----|-5-5-----5-5-----|x2
E||-5-5-----5-5-----|-5-5-----5-5-----|-----------------|-----------------|

    G                 D9                A2
G||-----------------|-----------------|-----------------|-----------------|
D||-----------------|-----------------|-----------------|-----------------|
A||-----------------|-5-5-----5-5-----|-----------------|-----------------|x2
E||-3-3-----3-3-----|-----------------|-5-5-----5-5-----|-5-5-----5-5-----|


VERSE

    A2                                  D9
G||-----------------|-----------------|-----------------|-----------------|
D||-----------------|-----------------|-----------------|-----------------|
A||-----------------|-----------------|-5-5-----5-5-----|-5-5-----5-5-----|x2
E||-5-5-----5-5-----|-5-5-----5-5-----|-----------------|-----------------|

    F#m               D9                Bm                E
G||-----------------|-----------------|-----------------|-----------------|
D||-----------------|-----------------|-----------------|-----------------|
A||-----------------|-5-5-----5-5-----|-2-2-----2-2-----|-----------------|
E||-2-2-----2-2-----|-----------------|-----------------|-0-0-----0-0-----|


CHORUS

    A2                                  D9
G||-----------------|-----------------|-----------------|-----------------|
D||-----------------|-----------------|-----------------|-----------------|
A||-----------------|-----------------|-5-5-----5-5-----|-5-5-----5-5-----|x2
E||-5-5-----5-5-----|-5-5-----5-5-----|-----------------|-----------------|

    G                 D9                A2
G||-----------------|-----------------|-----------------|-----------------|
D||-----------------|-----------------|-----------------|-----------------|
A||-----------------|-5-5-----5-5-----|-----------------|-----------------|
E||-3-3-----3-3-----|-----------------|-5-5-----5-5-----|-5-5-----5-5-----|


OUTRO

    A2                                  D9
G||-----------------|-----------------|-----------------|-----------------|
D||-----------------|-----------------|-----------------|-----------------|
A||-----------------|-----------------|-5-5-----5-5-----|-5-5-----5-5-----|
E||-5-5-----5-5-----|-5-5-----5-5-----|-----------------|-----------------|

The song fades out so yeah.

By Tony.
Contact me if there are any queries.
regretful-infatuation@hotmail.com
azn_guy864@hotmail.com

            
            
Suggest correction
Creating personal tab
Creating personal tab
You can edit any tab online and save it as your Personal.

You can edit, replace or remove any tab part or add personal notes – all changes will be seen only by you.

Personal tabs can be accessed anytime from any device, even offline.
Learn more »
Give kudos to tab author, rate the tab!
1 2 3 4 5
comments
print report bad tab
guest
Wanna post a correction for this tab? Suggest correction