Oops, an error
Loading. Please wait.

To Hell And Back tab

version 2
version 2

Whole song

20,850 views 3 this week
2 commentsread comments
1 2 3 4 5
x 5
add to favorites
×
Save as Personal and add changes to this tab that will be seen only by you. Learn more ›
×
You can save this tab as Personal to edit and correct it or add notes. All changes will be seen only by you. Learn more »
launch autoscroll
font size
0
reset
how to read this tab
guitar tuner
edit
Autoscroll
slow
fast
+/-
esc
set tempo
stop
                               To Hell and Back                                 
                                Blessthefall

Guitar 1
Drop D Tuning



      T   T   T   T   T    T   T    T       T   T   T   T   T   T   T   T   
      E   E   E   E   E    E   E    E       E   E   E   E   E   E   E   E   
E||-------------------------------------|----------------------------------|
B||--17p--6-----------------------------|----------------------------------|
G||----------15p--7-----------14h--15h--|--17p--7--14p--7--14p--7--14p--7--|
D||------------------15h--17------------|----------------------------------|
A||-------------------------------------|----------------------------------|
D||-------------------------------------|----------------------------------|
 
 
   T   T   T   T   T    T   T    T       T   T   T   T   T   T   T   T   
   E   E   E   E   E    E   E    E       E   E   E   E   E   E   E   E   
-------------------------------------|----------------------------------|
--17p--6-----------------------------|----------------------------------|
----------15p--7-----------14h--15h--|--17p--7--14p--7--14p--7--14p--7--|
------------------15h--17------------|----------------------------------|
-------------------------------------|----------------------------------|
-------------------------------------|----------------------------------|
 
 
   T   T   T   T   T    T   T    T       T   T   T   T   T   T   T   T   
   E   E   E   E   E    E   E    E       E   E   E   E   E   E   E   E   
-------------------------------------|----------------------------------|
--17p--6-----------------------------|----------------------------------|
----------15p--7-----------14h--15h--|--17p--7--14p--7--14p--7--14p--7--|
------------------15h--17------------|----------------------------------|
-------------------------------------|----------------------------------|
-------------------------------------|----------------------------------|
 
 
   T   T   T   T   T    T   T    T       T   T   T   T   T   T   T   T   
   E   E   E   E   E    E   E    E       E   E   E   E   E   E   E   E   
-------------------------------------|----------------------------------|
--17p--6-----------------------------|----------------------------------|
----------15p--7-----------14h--15h--|--17p--7--14p--7--14p--7--14p--7--|
------------------15h--17------------|----------------------------------|
-------------------------------------|----------------------------------|
-------------------------------------|----------------------------------|
 
 
   T   T   T   T   T    T   T    T       T   T   T   T   T   T   T   T   
   E   E   E   E   E    E   E    E       E   E   E   E   E   E   E   E   
-------------------------------------|----------------------------------|
--17p--6-----------------------------|----------------------------------|
----------15p--7-----------14h--15h--|--17p--7--14p--7--14p--7--14p--7--|
------------------15h--17------------|----------------------------------|
-------------------------------------|----------------------------------|
-------------------------------------|----------------------------------|
 
 
   T   T   T   T   T    T   T    T       T   T   T   T   T   T   T   T   
   E   E   E   E   E    E   E    E       E   E   E   E   E   E   E   E   
-------------------------------------|----------------------------------|
--17p--6-----------------------------|----------------------------------|
----------15p--7-----------14h--15h--|--17p--7--14p--7--14p--7--14p--7--|
------------------15h--17------------|----------------------------------|
-------------------------------------|----------------------------------|
-------------------------------------|----------------------------------|
 
 
   T   T   T   T   T    T   T    T       T   T   T   T   T   T   T   T   
   E   E   E   E   E    E   E    E       E   E   E   E   E   E   E   E   
-------------------------------------|----------------------------------|
--17p--6-----------------------------|----------------------------------|
----------15p--7-----------14h--15h--|--17p--7--14p--7--14p--7--14p--7--|
------------------15h--17------------|----------------------------------|
-------------------------------------|----------------------------------|
-------------------------------------|----------------------------------|
 
 
   T   T   T   T   T    T   T    T       T   T   T   T   T   T   T   T   
   E   E   E   E   E    E   E    E       E   E   E   E   E   E   E   E   
-------------------------------------|----------------------------------|
--17p--6-----------------------------|----------------------------------|
----------15p--7-----------14h--15h--|--17p--7--14p--7--14p--7--14p--7--|
------------------15h--17------------|----------------------------------|
-------------------------------------|----------------------------------|
-------------------------------------|----------------------------------|
 
 
   T   T   T   T   T    T   T    T       T   T   T   T   T   T   T   T   
   E   E   E   E   E    E   E    E       E   E   E   E   E   E   E   E   
-------------------------------------|----------------------------------|
--17p--6-----------------------------|----------------------------------|
----------15p--7-----------14h--15h--|--17p--7--14p--7--14p--7--14p--7--|
------------------15h--17------------|----------------------------------|
-------------------------------------|----------------------------------|
-------------------------------------|----------------------------------|
 
 
   T   T   T   T   T   T   T   T      T   T   T   T   T   T   T   T   
   E   E   E   E   E   E   E   E      E   E   E   E   E   E   E   E   
----------------------------------|----------------------------------|
--17p--6--17p--6--17p--6--18p--6--|--18p--6--18p--6--15p--6--15p--6--|
----------------------------------|----------------------------------|
----------------------------------|----------------------------------|
----------------------------------|----------------------------------|
----------------------------------|----------------------------------|
 
 
  E  E  E  E  Q     E   E      E   E   E   E   E   E   E   E   
---------------------------|----------------------------------|
---------------------------|----------------------------------|
--7--7--7--7--7----10--10--|--10--10--10--10--10--10--10--10--|
--x--x--x--x--x-----x---x--|---x---x---x---x---x---x---x---x--|
--5--5--5--5--5-----8---8--|---8---8---8---8---8---8---8---8--|
---------------------------|----------------------------------|
 
 
  E  E  E  E  E  E  E  E     E   E   E   E   E   E   E   E   
--------------------------|---------------------------------|
--------------------------|---------------------------------|
--7--7--7--7--7--7--7--7--|--7--10--10--10--10--10--10--10--|
--x--x--x--x--x--x--x--x--|--x---x---x---x---x---x---x---x--|
--5--5--5--5--5--5--5--5--|--5---8---8---8---8---8---8---8--|
--------------------------|---------------------------------|
 
 
   E   E   E   E   E   E   E   E      E   E   E   E   E   E   E   E   
----------------------------------|----------------------------------|
----------------------------------|----------------------------------|
--10--10--10--10--10--10--10--10--|--10--10--10--10--10--10--10--10--|
---x---x---x---x---x---x---x---x--|---x---x---x---x---x---x---x---x--|
---8---8---8---8---8---8---8---8--|---8---8---8---8---8---8---8---8--|
----------------------------------|----------------------------------|
 
 
   E   E   E   E   E   E   E   E      E   E   E   E   E   E   E   E   
----------------------------------|----------------------------------|
----------------------------------|----------------------------------|
--12--12--12--12--12--12--12--12--|--12--12--12--12--12--12--12--12--|
---x---x---x---x---x---x---x---x--|---x---x---x---x---x---x---x---x--|
--10--10--10--10--10--10--10--10--|--10--10--10--10--10--10--10--10--|
----------------------------------|----------------------------------|
 
 
  E  E  E  E  Q     E   E      E   E   E   E   E   E   E   E   
---------------------------|----------------------------------|
---------------------------|----------------------------------|
--7--7--7--7--7----10--10--|--10--10--10--10--10--10--10--10--|
--x--x--x--x--x-----x---x--|---x---x---x---x---x---x---x---x--|
--5--5--5--5--5-----8---8--|---8---8---8---8---8---8---8---8--|
---------------------------|----------------------------------|
 
 
  E  E  E  E  E  E  E  E     E   E   E   E   E   E   E   E   
--------------------------|---------------------------------|
--------------------------|---------------------------------|
--7--7--7--7--7--7--7--7--|--7--10--10--10--10--10--10--10--|
--x--x--x--x--x--x--x--x--|--x---x---x---x---x---x---x---x--|
--5--5--5--5--5--5--5--5--|--5---8---8---8---8---8---8---8--|
--------------------------|---------------------------------|
 
 
   E   E   E   E   E   E   E   E      E   E   E   E   E   E   E   E   
----------------------------------|----------------------------------|
----------------------------------|----------------------------------|
--10--10--10--10--10--10--10--10--|--10--10--10--10--10--10--10--10--|
---x---x---x---x---x---x---x---x--|---x---x---x---x---x---x---x---x--|
---8---8---8---8---8---8---8---8--|---8---8---8---8---8---8---8---8--|
----------------------------------|----------------------------------|
 
 
   E   E   E   E   E   E   E   E      E   E   E   E   E   E   E   E   
----------------------------------|----------------------------------|
----------------------------------|----------------------------------|
--12--12--12--12--12--12--12--12--|--12--12--12--12--12--12--12--12--|
---x---x---x---x---x---x---x---x--|---x---x---x---x---x---x---x---x--|
--10--10--10--10--10--10--10--10--|--10--10--10--10--10--10--10--10--|
----------------------------------|----------------------------------|
 
 
  E  E  E  E  E  E  E  E     E  E  E  E  E  E  E  E   
--------------------------|--------------------------|
--------------------------|--------------------------|
--7--7--7--7--7--7--7--7--|--7--7--7--7--7--7--7--7--|
--x--x--x--x--x--x--x--x--|--x--x--x--x--x--x--x--x--|
--5--5--5--5--5--5--5--5--|--5--5--5--5--5--5--5--5--|
--------------------------|--------------------------|
 
 
  E  E  E  E  E  E  E  E     E  E  E  E  E  E  E  E   
--------------------------|--------------------------|
--------------------------|--------------------------|
--7--7--7--7--7--7--7--7--|--7--7--7--7--7--7--7--7--|
--x--x--x--x--x--x--x--x--|--x--x--x--x--x--x--x--x--|
--5--5--5--5--5--5--5--5--|--5--5--5--5--5--5--5--5--|
--------------------------|--------------------------|
 
 
   E   E   E   E   E   E   E   E      E   E   E   E   E   E   E   E   
----------------------------------|----------------------------------|
----------------------------------|----------------------------------|
--10--10--10--10--10--10--10--10--|--10--10--10--10--10--10--10--10--|
---x---x---x---x---x---x---x---x--|---x---x---x---x---x---x---x---x--|
---8---8---8---8---8---8---8---8--|---8---8---8---8---8---8---8---8--|
----------------------------------|----------------------------------|
 
 
   E   E   E   E   E   E   E   E      E   E   E   E   E   E   E   E   
----------------------------------|----------------------------------|
----------------------------------|----------------------------------|
--12--12--12--12--12--12--14--14--|--14--14--14--14--14--14--14--14--|
---x---x---x---x---x---x---x---x--|---x---x---x---x---x---x---x---x--|
--10--10--10--10--10--10--12--12--|--12--12--12--12--12--12--12--12--|
----------------------------------|----------------------------------|
 
 
   E   E   E   E   E   E   E   E      E   E   E   E   E   E   E   E   
----------------------------------|----------------------------------|
----------------------------------|----------------------------------|
--10--10--10--10--10--10--10--10--|--10--10--10--10--10--10--10--10--|
---x---x---x---x---x---x---x---x--|---x---x---x---x---x---x---x---x--|
---8---8---8---8---8---8---8---8--|---8---8---8---8---8---8---8---8--|
----------------------------------|----------------------------------|
 
 
   E   E   E   E   E   E   E   E      E   E   E   E   E   E   E   E   
----------------------------------|----------------------------------|
----------------------------------|----------------------------------|
--10--10--10--10--10--10--10--10--|--10--10--10--10--10--10--10--10--|
---x---x---x---x---x---x---x---x--|---x---x---x---x---x---x---x---x--|
---8---8---8---8---8---8---8---8--|---8---8---8---8---8---8---8---8--|
----------------------------------|----------------------------------|
 
 
   E   E   E   E   E   E   E   E      E   E   E   E   E   E   E   E   
----------------------------------|----------------------------------|
----------------------------------|----------------------------------|
--14--14--14--14--14--14--14--14--|--14--14--14--14--14--14--14--14--|
---x---x---x---x---x---x---x---x--|---x---x---x---x---x---x---x---x--|
--12--12--12--12--12--12--12--12--|--12--12--12--12--12--12--12--12--|
----------------------------------|----------------------------------|
 
 
   E   E   E   E   E   E   E   E      W                  
----------------------------------|---------------------|
----------------------------------|---------------------|
--17--17--17--17--17--17--17--17--|--17b----------------|
---x---x---x---x---x---x---x---x--|---x-----------------|
--15--15--15--15--15--15--15--15--|--15b----------------|
----------------------------------|---------------------|
 
 
  E  E  E  E  E  E  E  E     E  E  E  E  E  E  E  E   
--------------------------|--------------------------|
--------------------------|--------------------------|
--------------------------|--------------------------|
--0--0--0--0-----0-----0--|-----0--0-----0-----0-----|
--0--0--0--0-----0-----0--|-----0--0-----0-----0-----|
--0--0--0--0-----0-----0--|-----0--0-----0-----0-----|
 
 
  E  E  E  E  E  E  E  E     E  E  E  E  E  Q.      
--------------------------|------------------------|
--------------------------|------------------------|
--------------------------|------------------------|
--0--0--0--0-----0-----0--|-----0--0-----0---------|
--0--0--0--0-----0-----0--|-----0--0-----0---------|
--0--0--0--0-----0-----0--|-----0--0-----0---------|
 
 
   T   T   T   T   T    T   T    T       T   T   T   T   T   T   T   T   
   E   E   E   E   E    E   E    E       E   E   E   E   E   E   E   E   
-------------------------------------|----------------------------------|
--17p--6-----------------------------|----------------------------------|
----------15p--7-----------14h--15h--|--17p--7--14p--7--14p--7--14p--7--|
------------------15h--17------------|----------------------------------|
-------------------------------------|----------------------------------|
-------------------------------------|----------------------------------|
 
 
   T   T   T   T   T    T   T    T       T   T   T   T   T   T   T   T   
   E   E   E   E   E    E   E    E       E   E   E   E   E   E   E   E   
-------------------------------------|----------------------------------|
--17p--6-----------------------------|----------------------------------|
----------15p--7-----------14h--15h--|--17p--7--14p--7--14p--7--14p--7--|
------------------15h--17------------|----------------------------------|
-------------------------------------|----------------------------------|
-------------------------------------|----------------------------------|
 
 
  E  E  E  E  E  E  E  E     E  E  E  E  E  E  E  E   
--------------------------|--------------------------|
--------------------------|--------------------------|
--------------------------|--------------------------|
--0--0--0--0-----0-----0--|-----0--0-----0-----0-----|
--0--0--0--0-----0-----0--|-----0--0-----0-----0-----|
--0--0--0--0-----0-----0--|-----0--0-----0-----0-----|
 
 
  E  E  E  E  E  E  E  E     E  E  E  E  E  Q.      
--------------------------|------------------------|
--------------------------|------------------------|
--------------------------|------------------------|
--0--0--0--0-----0-----0--|-----0--0-----0---------|
--0--0--0--0-----0-----0--|-----0--0-----0---------|
--0--0--0--0-----0-----0--|-----0--0-----0---------|
 
 
   T   T   T   T   T    T   T    T       T   T   T   T   T   T   T   T   
   E   E   E   E   E    E   E    E       E   E   E   E   E   E   E   E   
-------------------------------------|----------------------------------|
--17p--6-----------------------------|----------------------------------|
----------15p--7-----------14h--15h--|--17p--7--14p--7--14p--7--14p--7--|
------------------15h--17------------|----------------------------------|
-------------------------------------|----------------------------------|
-------------------------------------|----------------------------------|
 
 
   T   T   T   T   T   T   T   T      T   T   T   T   T   T   T   T   
   E   E   E   E   E   E   E   E      E   E   E   E   E   E   E   E   
----------------------------------|----------------------------------|
--17p--6--17p--6--17p--6--18p--6--|--18p--6--18p--6--15p--6--15p--6--|
----------------------------------|----------------------------------|
----------------------------------|----------------------------------|
----------------------------------|----------------------------------|
----------------------------------|----------------------------------|
 
 
   T   T   T   T   T    T   T    T       T   T   T   T   T   T   T   T   
   E   E   E   E   E    E   E    E       E   E   E   E   E   E   E   E   
-------------------------------------|----------------------------------|
--17p--6-----------------------------|----------------------------------|
----------15p--7-----------14h--15h--|--17p--7--14p--7--14p--7--14p--7--|
------------------15h--17------------|----------------------------------|
-------------------------------------|----------------------------------|
-------------------------------------|----------------------------------|
 
 
   T   T   T   T   T    T   T    T       T   T   T   T   T   T   T   T   
   E   E   E   E   E    E   E    E       E   E   E   E   E   E   E   E   
-------------------------------------|----------------------------------|
--17p--6-----------------------------|----------------------------------|
----------15p--7-----------14h--15h--|--17p--7--14p--7--14p--7--14p--7--|
------------------15h--17------------|----------------------------------|
-------------------------------------|----------------------------------|
-------------------------------------|----------------------------------|
 
 
   T   T   T   T   T    T   T    T       T   T   T   T   T   T   T   T   
   E   E   E   E   E    E   E    E       E   E   E   E   E   E   E   E   
-------------------------------------|----------------------------------|
--17p--6-----------------------------|----------------------------------|
----------15p--7-----------14h--15h--|--17p--7--14p--7--14p--7--14p--7--|
------------------15h--17------------|----------------------------------|
-------------------------------------|----------------------------------|
-------------------------------------|----------------------------------|
 
 
   T   T   T   T   T   T   T   T      T   T   T   T   T   T   T   T   
   E   E   E   E   E   E   E   E      E   E   E   E   E   E   E   E   
----------------------------------|----------------------------------|
--17p--6--17p--6--17p--6--18p--6--|--18p--6--18p--6--15p--6--15p--6--|
----------------------------------|----------------------------------|
----------------------------------|----------------------------------|
----------------------------------|----------------------------------|
----------------------------------|----------------------------------|
 
 
   T   T   T   T   T    T   T    T       T   T   T   T   T   T   T   T   
   E   E   E   E   E    E   E    E       E   E   E   E   E   E   E   E   
-------------------------------------|----------------------------------|
--17p--6-----------------------------|----------------------------------|
----------15p--7-----------14h--15h--|--17p--7--14p--7--14p--7--14p--7--|
------------------15h--17------------|----------------------------------|
-------------------------------------|----------------------------------|
-------------------------------------|----------------------------------|
 
 
   T   T   T   T   T    T   T    T       T   T   T   T   T   T   T   T   
   E   E   E   E   E    E   E    E       E   E   E   E   E   E   E   E   
-------------------------------------|----------------------------------|
--17p--6-----------------------------|----------------------------------|
----------15p--7-----------14h--15h--|--17p--7--14p--7--14p--7--14p--7--|
------------------15h--17------------|----------------------------------|
-------------------------------------|----------------------------------|
-------------------------------------|----------------------------------|
 
 
   T   T   T   T   T    T   T    T       T   T   T   T   T   T   T   T   
   E   E   E   E   E    E   E    E       E   E   E   E   E   E   E   E   
-------------------------------------|----------------------------------|
--17p--6-----------------------------|----------------------------------|
----------15p--7-----------14h--15h--|--17p--7--14p--7--14p--7--14p--7--|
------------------15h--17------------|----------------------------------|
-------------------------------------|----------------------------------|
-------------------------------------|----------------------------------|
 
 
   T   T   T   T   T   T   T   T      T   T   T   T   T   T   T   T   
   E   E   E   E   E   E   E   E      E   E   E   E   E   E   E   E   
----------------------------------|----------------------------------|
--17p--6--17p--6--17p--6--17p--6--|--17p--6--17p--6--17p--6--17p--6--|
----------------------------------|----------------------------------|
----------------------------------|----------------------------------|
----------------------------------|----------------------------------|
----------------------------------|----------------------------------|
 
 
  Q.     Q.      Q       E  Q.      Q    Q       Q.     Q.      Q     
----------------------|-----------------------|----------------------|
---------5b-----------|-----5b----------------|---------5b-----------|
----------------------|-----------------------|----------------------|
----------------------|-----------------------|----------------------|
----------------------|-----------------------|----------------------|
----------------------|-----------------------|----------------------|
 
 
  E  Q.      Q    Q       Q.     Q.      Q       E  Q.      Q    Q     
-----------------------|----------------------|-----------------------|
-----5b----------------|---------5b-----------|-----5b----------------|
-----------------------|----------------------|-----------------------|
-----------------------|----------------------|-----------------------|
-----------------------|----------------------|-----------------------|
-----------------------|----------------------|-----------------------|
 
 
  Q.     Q.      Q       E  Q.      Q    Q       E  E  E  E  E  E  E  E   
----------------------|-----------------------|--0--0--0--0--0--0--0--0--|
---------5b-----------|-----5b----------------|--6--6--6--6--6--6--6--6--|
----------------------|-----------------------|--------------------------|
----------------------|-----------------------|--------------------------|
----------------------|-----------------------|--------------------------|
----------------------|-----------------------|--------------------------|
 
 
  E  E  E  E  E  E  E  E     E  E  E  E  E  E  E  E   
--0--0--0--0--0--0--0--0--|--0--0--0--0--0--0--0--0--|
--6--6--6--6--6--6--6--6--|--6--6--6--6--6--6--6--6--|
--------------------------|--------------------------|
--------------------------|--------------------------|
--------------------------|--------------------------|
--------------------------|--------------------------|
 
 
  E  E  E  E  E  E  E  E     E  E  E  E  E  E  E  E   
--0--0--0--0--0--0--0--0--|--0--0--0--0--0--0--0--0--|
--6--6--6--6--6--6--6--6--|--6--6--6--6--6--6--6--6--|
--------------------------|--------------------------|
--------------------------|--------------------------|
--------------------------|--------------------------|
--------------------------|--------------------------|
 
 
  E  E  E  E  E  E  E  E     E  E  E  E  E  E  E  E     E  E  E  E  E  E  Q     
--0--0--0--0--0--0--0--0--|--0--0--0--0--0--0--0--0--|--0--0--0--0-------------|
--6--6--6--6--6--6--6--6--|--6--6--6--6--6--6--6--6--|--6--6--6--6-------------|
--------------------------|--------------------------|-------------------------|
--------------------------|--------------------------|--------------8--8-------|
--------------------------|--------------------------|--------------8--8-------|
--------------------------|--------------------------|--------------8--8-------|
 
 
          E  E  E  E  E  E  E  E     E  E  E  E  E  E  E  E   
-------|--------------------------|--------------------------|
-------|--------------------------|--------------------------|
-------|--------------------------|--------------------------|
-------|--0--0--0--0-----0-----0--|-----0--0-----0-----0-----|
-------|--0--0--0--0-----0-----0--|-----0--0-----0-----0-----|
-------|--0--0--0--0-----0-----0--|-----0--0-----0-----0-----|
 
 
  E  E  E  E  E  E  E  E     E  E  E  E  E  Q.      
--------------------------|------------------------|
--------------------------|------------------------|
--------------------------|------------------------|
--0--0--0--0-----0-----0--|-----0--0-----0---------|
--0--0--0--0-----0-----0--|-----0--0-----0---------|
--0--0--0--0-----0-----0--|-----0--0-----0---------|
 
 
   T   T   T   T   T    T   T    T       T   T   T   T   T   T   T   T   
   E   E   E   E   E    E   E    E       E   E   E   E   E   E   E   E   
-------------------------------------|----------------------------------|
--17p--6-----------------------------|----------------------------------|
----------15p--7-----------14h--15h--|--17p--7--14p--7--14p--7--14p--7--|
------------------15h--17------------|----------------------------------|
-------------------------------------|----------------------------------|
-------------------------------------|----------------------------------|
 
 
   T   T   T   T   T    T   T    T       T   T   T   T   T   T   T   T   
   E   E   E   E   E    E   E    E       E   E   E   E   E   E   E   E   
-------------------------------------|----------------------------------|
--17p--6-----------------------------|----------------------------------|
----------15p--7-----------14h--15h--|--17p--7--14p--7--14p--7--14p--7--|
------------------15h--17------------|----------------------------------|
-------------------------------------|----------------------------------|
-------------------------------------|----------------------------------|
 
 
  E  E  E  E  E  E  E  E     E  E  E  E  E  E  E  E   
--------------------------|--------------------------|
--------------------------|--------------------------|
--------------------------|--------------------------|
--0--0--0--0-----0-----0--|-----0--0-----0-----0-----|
--0--0--0--0-----0-----0--|-----0--0-----0-----0-----|
--0--0--0--0-----0-----0--|-----0--0-----0-----0-----|
 
 
  E  E  E  E  E  E  E  E     E  E  E  E  E  Q.      
--------------------------|------------------------|
--------------------------|------------------------|
--------------------------|------------------------|
--0--0--0--0-----0-----0--|-----0--0-----0---------|
--0--0--0--0-----0-----0--|-----0--0-----0---------|
--0--0--0--0-----0-----0--|-----0--0-----0---------|
 
 
   T   T   T   T   T    T   T    T       T   T   T   T   T   T   T   T   
   E   E   E   E   E    E   E    E       E   E   E   E   E   E   E   E   
-------------------------------------|----------------------------------|
--17p--6-----------------------------|----------------------------------|
----------15p--7-----------14h--15h--|--17p--7--14p--7--14p--7--14p--7--|
------------------15h--17------------|----------------------------------|
-------------------------------------|----------------------------------|
-------------------------------------|----------------------------------|
 
 
   T   T   T   T   T   T   T   T      T   T   T   T   T   T   T   T   
   E   E   E   E   E   E   E   E      E   E   E   E   E   E   E   E   
----------------------------------|----------------------------------|
--17p--6--17p--6--17p--6--18p--6--|--18p--6--18p--6--15p--6--15p--6--|
----------------------------------|----------------------------------|
----------------------------------|----------------------------------|
----------------------------------|----------------------------------|
----------------------------------|----------------------------------|
 
 
   T   T   T   T   T    T   T    T       T   T   T   T   T   T   T   T   
   E   E   E   E   E    E   E    E       E   E   E   E   E   E   E   E   
-------------------------------------|----------------------------------|
--17p--6-----------------------------|----------------------------------|
----------15p--7-----------14h--15h--|--17p--7--14p--7--14p--7--14p--7--|
------------------15h--17------------|----------------------------------|
-------------------------------------|----------------------------------|
-------------------------------------|----------------------------------|
 
 
   T   T   T   T   T    T   T    T       T   T   T   T   T   T   T   T   
   E   E   E   E   E    E   E    E       E   E   E   E   E   E   E   E   
-------------------------------------|----------------------------------|
--17p--6-----------------------------|----------------------------------|
----------15p--7-----------14h--15h--|--17p--7--14p--7--14p--7--14p--7--|
------------------15h--17------------|----------------------------------|
-------------------------------------|----------------------------------|
-------------------------------------|----------------------------------|
 
 
   T   T   T   T   T    T   T    T       T   T   T   T   T   T   T   T   
   E   E   E   E   E    E   E    E       E   E   E   E   E   E   E   E   
-------------------------------------|----------------------------------|
--17p--6-----------------------------|----------------------------------|
----------15p--7-----------14h--15h--|--17p--7--14p--7--14p--7--14p--7--|
------------------15h--17------------|----------------------------------|
-------------------------------------|----------------------------------|
-------------------------------------|----------------------------------|
 
 
   T   T   T   T   T   T   T   T      T   T   T   T   T   T   T   T   
   E   E   E   E   E   E   E   E      E   E   E   E   E   E   E   E   
----------------------------------|----------------------------------|
--17p--6--17p--6--17p--6--18p--6--|--18p--6--18p--6--15p--6--15p--6--|
----------------------------------|----------------------------------|
----------------------------------|----------------------------------|
----------------------------------|----------------------------------|
----------------------------------|----------------------------------|
 
 
   T   T   T   T   T    T   T    T       T   T   T   T   T   T   T   T   
   E   E   E   E   E    E   E    E       E   E   E   E   E   E   E   E   
-------------------------------------|----------------------------------|
--17p--6-----------------------------|----------------------------------|
----------15p--7-----------14h--15h--|--17p--7--14p--7--14p--7--14p--7--|
------------------15h--17------------|----------------------------------|
-------------------------------------|----------------------------------|
-------------------------------------|----------------------------------|
 
 
   T   T   T   T   T    T   T    T       T   T   T   T   T   T   T   T   
   E   E   E   E   E    E   E    E       E   E   E   E   E   E   E   E   
-------------------------------------|----------------------------------|
--17p--6-----------------------------|----------------------------------|
----------15p--7-----------14h--15h--|--17p--7--14p--7--14p--7--14p--7--|
------------------15h--17------------|----------------------------------|
-------------------------------------|----------------------------------|
-------------------------------------|----------------------------------|
 
 
   T   T   T   T   T    T   T    T       T   T   T   T   T   T   T   T   
   E   E   E   E   E    E   E    E       E   E   E   E   E   E   E   E   
-------------------------------------|----------------------------------|
--17p--6-----------------------------|----------------------------------|
----------15p--7-----------14h--15h--|--17p--7--14p--7--14p--7--14p--7--|
------------------15h--17------------|----------------------------------|
-------------------------------------|----------------------------------|
-------------------------------------|----------------------------------|
 
 
   T   T   T   T   T   T   T   T      T   T   T   T   T   T   T   T   
   E   E   E   E   E   E   E   E      E   E   E   E   E   E   E   E   
----------------------------------|----------------------------------|
--17p--6--17p--6--17p--6--17p--6--|--17p--6--17p--6--17p--6--17p--6--|
----------------------------------|----------------------------------|
----------------------------------|----------------------------------|
----------------------------------|----------------------------------|
----------------------------------|----------------------------------|
 
 
  Q    Q    Q    Q       Q    Q    Q    Q       Q    Q    Q    Q     
--0----0----0----0----|--0----0----0----0----|--0----0----0----0----|
--6----6----6----6----|--6----6----6----6----|--6----6----6----6----|
----------------------|----------------------|----------------------|
----------------------|----------------------|----------------------|
----------------------|----------------------|----------------------|
----------------------|----------------------|----------------------|
 
 
  Q    Q    Q    Q       Q    Q    Q    Q       Q    Q    Q    Q     
--0----0----0----0----|--0----0----0----0----|--0----0----0----0----|
--6----6----6----6----|--6----6----6----6----|--6----6----6----6----|
----------------------|----------------------|----------------------|
----------------------|----------------------|----------------------|
----------------------|----------------------|----------------------|
----------------------|----------------------|----------------------|
 
 
  Q    Q    Q    Q             E  E  E  Q.     E  E     E  Q.     E  E  E  E   
--0----0----0----0----|-----|------------------------|------------------------|
--6----6----6----6----|-----|------------------------|------------------------|
----------------------|-----|------------------------|------------------------|
----------------------|-----|--0--0--0--0------0--0--|--0--0------0--0--0--0--|
----------------------|-----|--0--0--0--0------0--0--|--0--0------0--0--0--0--|
----------------------|-----|--0--0--0--0------0--0--|--0--0------0--0--0--0--|
 
 
  E  E  E  Q.     E  E     E  Q.     E  E  E  E     E  E  E  Q.     E  E   
------------------------|------------------------|------------------------|
------------------------|------------------------|------------------------|
------------------------|------------------------|------------------------|
--0--0--0--0------0--0--|--0--0------0--0--0--0--|--0--0--0--0------0--0--|
--0--0--0--0------0--0--|--0--0------0--0--0--0--|--0--0--0--0------0--0--|
--0--0--0--0------0--0--|--0--0------0--0--0--0--|--0--0--0--0------0--0--|
 
 
  E  Q.     E  E  E  E     E  E  E  Q.     E  E     E  Q.     E  E  E  E   
------------------------|------------------------|------------------------|
------------------------|------------------------|------------------------|
------------------------|------------------------|------------------------|
--0--0------0--0--0--0--|--0--0--0--0------0--0--|--0--0------0--0--0--0--|
--0--0------0--0--0--0--|--0--0--0--0------0--0--|--0--0------0--0--0--0--|
--0--0------0--0--0--0--|--0--0--0--0------0--0--|--0--0------0--0--0--0--|
 
 
  E   E  E   E  E   E  E   E     E   E  E   E  E   E  E   E   
------------------------------|------------------------------|
------------------------------|------------------------------|
------------------------------|------------------------------|
--7p--0--7p--0--7p--0--7p--0--|--7p--0--7p--0--7p--0--7p--0--|
------------------------------|------------------------------|
------------------------------|------------------------------|
 
 
  E   E  E   E  E   E  E   E     E   E  E   E  E   E  E   E   
------------------------------|------------------------------|
------------------------------|------------------------------|
------------------------------|------------------------------|
--8p--0--8p--0--8p--0--5p--0--|--5p--0--5p--0--5p--0--5p--0--|
------------------------------|------------------------------|
------------------------------|------------------------------|
 
 
  E   E  E   E  E   E  E   E     E   E  E   E  E   E  E   E   
------------------------------|------------------------------|
------------------------------|------------------------------|
------------------------------|------------------------------|
--7p--0--7p--0--7p--0--7p--0--|--7p--0--7p--0--7p--0--7p--0--|
------------------------------|------------------------------|
------------------------------|------------------------------|
 
 
  E   E  E   E  E   E  E   E     E   E  E   E  E   E  E   E   
------------------------------|------------------------------|
------------------------------|------------------------------|
------------------------------|------------------------------|
--8p--0--8p--0--8p--0--5p--0--|--5p--0--5p--0--5p--0--5p--0--|
------------------------------|------------------------------|
------------------------------|------------------------------|
 
 
  E   E  E   E  E   E  E   E     E   E  E   E  E   E  E   E   
------------------------------|------------------------------|
------------------------------|------------------------------|
------------------------------|------------------------------|
--7p--0--7p--0--7p--0--7p--0--|--7p--0--7p--0--7p--0--7p--0--|
------------------------------|------------------------------|
------------------------------|------------------------------|
 
 
  E   E  E   E  E   E  E   E     E   E  E   E  E   E  E   E   
------------------------------|------------------------------|
------------------------------|------------------------------|
------------------------------|------------------------------|
--8p--0--8p--0--8p--0--5p--0--|--5p--0--5p--0--5p--0--5p--0--|
------------------------------|------------------------------|
------------------------------|------------------------------|
 
 
  E   E  E   E  E   E  E   E     E   E  E   E  E   E  E   E   
------------------------------|------------------------------|
------------------------------|------------------------------|
------------------------------|------------------------------|
--7p--0--7p--0--7p--0--7p--0--|--7p--0--7p--0--7p--0--7p--0--|
------------------------------|------------------------------|
------------------------------|------------------------------|
 
 
  E   E  E   E  E   E  E   E     E   E  E   E  E   E  E   E   
------------------------------|------------------------------|
------------------------------|------------------------------|
------------------------------|------------------------------|
--8p--0--8p--0--8p--0--5p--0--|--5p--0--5p--0--5p--0--5p--0--|
------------------------------|------------------------------|
------------------------------|------------------------------|
 
 
  E   E  E   E  E   E  E   E     E   E  E   E  E   E  E   E   
------------------------------|------------------------------|
------------------------------|------------------------------|
------------------------------|------------------------------|
--7p--0--7p--0--7p--0--7p--0--|--7p--0--7p--0--7p--0--7p--0--|
------------------------------|------------------------------|
------------------------------|------------------------------|
 
 
  E   E  E   E  E   E  E   E     E   E  E   E  E   E  E   E   
------------------------------|------------------------------|
------------------------------|------------------------------|
------------------------------|------------------------------|
--8p--0--8p--0--8p--0--5p--0--|--5p--0--5p--0--5p--0--5p--0--|
------------------------------|------------------------------|
------------------------------|------------------------------|
 
 
  E   E  E   E  E   E  E   E     E   E  E   E  E   E  E   E   
------------------------------|------------------------------|
------------------------------|------------------------------|
------------------------------|------------------------------|
--7p--0--7p--0--7p--0--7p--0--|--7p--0--7p--0--7p--0--7p--0--|
------------------------------|------------------------------|
------------------------------|------------------------------|
 
 
  E   E  E   E  E   E  E   E     E   E  E   E  E   E  E   E   
------------------------------|------------------------------|
------------------------------|------------------------------|
------------------------------|------------------------------|
--8p--0--8p--0--8p--0--5p--0--|--5p--0--5p--0--5p--0--5p--0--|
------------------------------|------------------------------|
------------------------------|------------------------------|
 
 
  E   E  E   E  E   E  E   E     E   E  E   E  E   E  E   E   
------------------------------|------------------------------|
------------------------------|------------------------------|
------------------------------|------------------------------|
--7p--0--7p--0--7p--0--7p--0--|--7p--0--7p--0--7p--0--7p--0--|
------------------------------|------------------------------|
------------------------------|------------------------------|
 
 
  E   E  E   E  E   E  E   E     E   E  E   E  E   E  E   E   
------------------------------|------------------------------|
------------------------------|------------------------------|
------------------------------|------------------------------|
--8p--0--8p--0--8p--0--5p--0--|--5p--0--5p--0--5p--0--5p--0--|
------------------------------|------------------------------|
------------------------------|------------------------------|
 
 
  E   E  E   E  E   E  E   E     E   E  E   E  E   E  E   E   
------------------------------|------------------------------|
------------------------------|------------------------------|
------------------------------|------------------------------|
--7p--0--7p--0--7p--0--7p--0--|--7p--0--7p--0--7p--0--7p--0--|
------------------------------|------------------------------|
------------------------------|------------------------------|
 
 
  E   E  E   E  E   E  E   E     E   E  E   E  E   E  E   E   
------------------------------|------------------------------|
------------------------------|------------------------------|
------------------------------|------------------------------|
--8p--0--8p--0--8p--0--5p--0--|--5p--0--5p--0--5p--0--5p--0--|
------------------------------|------------------------------|
------------------------------|------------------------------|
 
 
  Q.     Q.     Q       E  Q.     E  E  E  E     Q.     Q.     Q     
---------------------|------------------------|---------------------|
---------------------|------------------------|---------------------|
---------------------|------------------------|---------------------|
--0-------------0----|--L---------0-----0-----|--0-------------0----|
--0-------------0----|--L---------0-----0-----|--0-------------0----|
--0-------------0----|--L---------0-----0-----|--0-------------0----|
 
 
  W                   W                   W                 
-------------------|-------------------|-------------------|
-------------------|-------------------|-------------------|
-------------------|-------------------|-------------------|
--L----------------|--L----------------|--L----------------|
--L----------------|--L----------------|--L----------------|
--L----------------|--L----------------|--L----------------|
 
 
  W                  
-------------------||
-------------------||
-------------------||
--L----------------||
--L----------------||
--L----------------||
 




------------------------------------------------------------





Guitar 2
Drop D Tuning



                     <                                     
                     W                   W                 
E||-------|-------|-------------------|-------------------|
B||-------|-------|-------------------|-------------------|
G||-------|-------|-------------------|-------------------|
D||-------|-------|--0----------------|--L----------------|
A||-------|-------|--0----------------|--L----------------|
D||-------|-------|--0----------------|--L----------------|
 
 
  E  E  E  E  E  E  E  E     E  E  E  E  E  E  E  E   
--------------------------|--------------------------|
--------------------------|--------------------------|
--------------------------|--------------------------|
--0--0--0--0-----0-----0--|-----0--0-----0-----0-----|
--0--0--0--0-----0-----0--|-----0--0-----0-----0-----|
--0--0--0--0-----0-----0--|-----0--0-----0-----0-----|
 
 
  E  E  E  E  E  E  E  E     E  E  E  E  E  E  E  E     E  E  E  Q.     E  E   
--------------------------|--------------------------|------------------------|
--------------------------|--------------------------|------------------------|
--------------------------|--------------------------|------------------------|
--0--0--0--0-----0-----0--|-----0--0-----0-----0-----|--8--8--8--8------8--8--|
--0--0--0--0-----0-----0--|-----0--0-----0-----0-----|--8--8--8--8------8--8--|
--0--0--0--0-----0-----0--|-----0--0-----0-----0-----|--8--8--8--8------8--8--|
 
 
  E  Q.     E  E  E  E     E  E  E  Q.     E  E     E  Q.      E   E   E   E   
------------------------|------------------------|----------------------------|
------------------------|------------------------|----------------------------|
------------------------|------------------------|------------14--14--14--14--|
--8--8------8--8--8--8--|--5--5--5--5------5--5--|--5--5-------x---x---x---x--|
--8--8------8--8--8--8--|--5--5--5--5------5--5--|--5--5------12--12--12--12--|
--8--8------8--8--8--8--|--5--5--5--5------5--5--|--5--5----------------------|
 
 
  E  E  E  E  E  E  E  E     E  E  E  E  E  E  E  E   
--------------------------|--------------------------|
--------------------------|--------------------------|
--------------------------|--------------------------|
--0--0--0--0-----0-----0--|-----0--0-----0-----0-----|
--0--0--0--0-----0-----0--|-----0--0-----0-----0-----|
--0--0--0--0-----0-----0--|-----0--0-----0-----0-----|
 
 
  E  E  E  E  E  E  E  E     E  E  E  E  E  E  E  E     E  E  E  Q.     E  E   
--------------------------|--------------------------|------------------------|
--------------------------|--------------------------|------------------------|
--------------------------|--------------------------|------------------------|
--0--0--0--0-----0-----0--|-----0--0-----0-----0-----|--5--5--5--5------5--5--|
--0--0--0--0-----0-----0--|-----0--0-----0-----0-----|--5--5--5--5------5--5--|
--0--0--0--0-----0-----0--|-----0--0-----0-----0-----|--5--5--5--5------5--5--|
 
 
  E  Q.     E  E  E  E     E  E  E  Q.     E  E     E  Q.     E  E  E  E   
------------------------|------------------------|------------------------|
------------------------|------------------------|------------------------|
------------------------|------------------------|------------------------|
--5--5------5--5--5--5--|--8--8--8--8------8--8--|--8--8------8--8--8--8--|
--5--5------5--5--5--5--|--8--8--8--8------8--8--|--8--8------8--8--8--8--|
--5--5------5--5--5--5--|--8--8--8--8------8--8--|--8--8------8--8--8--8--|
 
 
   E   E   E   E   E   E   E   E      E   E   E   E   E   E   E   E   
----------------------------------|----------------------------------|
----------------------------------|----------------------------------|
--10--10--10--10--10--10--10--10--|--10--10--10--10--10--10--10--10--|
---x---x---x---x---x---x---x---x--|---x---x---x---x---x---x---x---x--|
---8---8---8---8---8---8---8---8--|---8---8---8---8---8---8---8---8--|
----------------------------------|----------------------------------|
 
 
   E   E   E   E   E   E   E   E      E   E   E   E   E   E   E  E   
----------------------------------|---------------------------------|
----------------------------------|---------------------------------|
--10--10--10--10--10--10--10--10--|--10--10--10--14--14--14--14--7--|
---x---x---x---x---x---x---x---x--|---x---x---x---x---x---x---x--x--|
---8---8---8---8---8---8---8---8--|---8---8---8--12--12--12--12--5--|
----------------------------------|---------------------------------|
 
 
  E  E  E  E  E  E  E  E     E  E  E  E  E  E  E  E   
--------------------------|--------------------------|
--------------------------|--------------------------|
--7--7--7--7--7--7--7--7--|--7--7--7--7--7--7--7--7--|
--x--x--x--x--x--x--x--x--|--x--x--x--x--x--x--x--x--|
--5--5--5--5--5--5--5--5--|--5--5--5--5--5--5--5--5--|
--------------------------|--------------------------|
 
 
  E  E  E  E  E  E  E  E     E  E  E  E  E  E  E  E   
--------------------------|--------------------------|
--------------------------|--------------------------|
--9--9--9--9--9--9--9--9--|--9--9--9--9--9--9--9--9--|
--x--x--x--x--x--x--x--x--|--x--x--x--x--x--x--x--x--|
--7--7--7--7--7--7--7--7--|--7--7--7--7--7--7--7--7--|
--------------------------|--------------------------|
 
 
   E   E   E   E   E   E   E   E      E   E   E   E   E   E   E   E   
----------------------------------|----------------------------------|
----------------------------------|----------------------------------|
--10--10--10--10--10--10--10--10--|--10--10--10--10--10--10--10--10--|
---x---x---x---x---x---x---x---x--|---x---x---x---x---x---x---x---x--|
---8---8---8---8---8---8---8---8--|---8---8---8---8---8---8---8---8--|
----------------------------------|----------------------------------|
 
 
   E   E   E   E   E   E   E   E      E   E   E   E   E   E   E  E   
----------------------------------|---------------------------------|
----------------------------------|---------------------------------|
--10--10--10--10--10--10--10--10--|--10--10--10--14--14--14--14--7--|
---x---x---x---x---x---x---x---x--|---x---x---x---x---x---x---x--x--|
---8---8---8---8---8---8---8---8--|---8---8---8--12--12--12--12--5--|
----------------------------------|---------------------------------|
 
 
  E  E  E  E  E  E  E  E     E  E  E  E  E  E  E  E   
--------------------------|--------------------------|
--------------------------|--------------------------|
--7--7--7--7--7--7--7--7--|--7--7--7--7--7--7--7--7--|
--x--x--x--x--x--x--x--x--|--x--x--x--x--x--x--x--x--|
--5--5--5--5--5--5--5--5--|--5--5--5--5--5--5--5--5--|
--------------------------|--------------------------|
 
 
  E  E  E  E  E  E  E  E     E  E  E  E  E  E  E  E   
--------------------------|--------------------------|
--------------------------|--------------------------|
--9--9--9--9--9--9--9--9--|--9--9--9--9--9--9--9--9--|
--x--x--x--x--x--x--x--x--|--x--x--x--x--x--x--x--x--|
--7--7--7--7--7--7--7--7--|--7--7--7--7--7--7--7--7--|
--------------------------|--------------------------|
 
 
  E  E  E  E  E  E  E  E     E  E  E  E  E  E  E  E   
--------------------------|--------------------------|
--------------------------|--------------------------|
--7--7--7--7--7--7--7--7--|--7--7--7--7--7--7--7--7--|
--x--x--x--x--x--x--x--x--|--x--x--x--x--x--x--x--x--|
--5--5--5--5--5--5--5--5--|--5--5--5--5--5--5--5--5--|
--------------------------|--------------------------|
 
 
  E  E  E  E  E  E  E  E     E  E  E  E  E  E  E  E   
--------------------------|--------------------------|
--------------------------|--------------------------|
--7--7--7--7--7--7--7--7--|--7--7--7--7--7--7--7--7--|
--x--x--x--x--x--x--x--x--|--x--x--x--x--x--x--x--x--|
--5--5--5--5--5--5--5--5--|--5--5--5--5--5--5--5--5--|
--------------------------|--------------------------|
 
 
   E   E   E   E   E   E   E   E      E   E   E   E   E   E   E   E   
----------------------------------|----------------------------------|
----------------------------------|----------------------------------|
--10--10--10--10--10--10--10--10--|--10--10--10--10--10--10--10--10--|
---x---x---x---x---x---x---x---x--|---x---x---x---x---x---x---x---x--|
---8---8---8---8---8---8---8---8--|---8---8---8---8---8---8---8---8--|
----------------------------------|----------------------------------|
 
 
   E   E   E   E   E   E   E   E      E   E   E   E   E   E   E   E   
----------------------------------|----------------------------------|
----------------------------------|----------------------------------|
--12--12--12--12--12--12--14--14--|--14--14--14--14--14--14--14--14--|
---x---x---x---x---x---x---x---x--|---x---x---x---x---x---x---x---x--|
--10--10--10--10--10--10--12--12--|--12--12--12--12--12--12--12--12--|
----------------------------------|----------------------------------|
 
 
  E  E  E  E  E  E  E  E     E  E  E  E  E  E  E  E   
--------------------------|--------------------------|
--------------------------|--------------------------|
--7--7--7--7--7--7--7--7--|--7--7--7--7--7--7--7--7--|
--x--x--x--x--x--x--x--x--|--x--x--x--x--x--x--x--x--|
--5--5--5--5--5--5--5--5--|--5--5--5--5--5--5--5--5--|
--------------------------|--------------------------|
 
 
  E  E  E  E  E  E  E  E     E  E  E  E  E  E  E  E   
--------------------------|--------------------------|
--------------------------|--------------------------|
--7--7--7--7--7--7--7--7--|--7--7--7--7--7--7--7--7--|
--x--x--x--x--x--x--x--x--|--x--x--x--x--x--x--x--x--|
--5--5--5--5--5--5--5--5--|--5--5--5--5--5--5--5--5--|
--------------------------|--------------------------|
 
 
   E   E   E   E   E   E   E   E      E   E   E   E   E   E   E   E   
----------------------------------|----------------------------------|
----------------------------------|----------------------------------|
--10--10--10--10--10--10--10--10--|--10--10--10--10--10--10--10--10--|
---x---x---x---x---x---x---x---x--|---x---x---x---x---x---x---x---x--|
---8---8---8---8---8---8---8---8--|---8---8---8---8---8---8---8---8--|
----------------------------------|----------------------------------|
 
 
   E   E   E   E   E   E   E   E      W                  
----------------------------------|---------------------|
----------------------------------|---------------------|
--14--14--14--14--14--14--14--14--|--14b----------------|
---x---x---x---x---x---x---x---x--|---x-----------------|
--12--12--12--12--12--12--12--12--|--12b----------------|
----------------------------------|---------------------|
 
 
  E  E  E  E  E  E  E  E     E  E  E  E  E  E  E  E   
--------------------------|--------------------------|
--------------------------|--------------------------|
--------------------------|--------------------------|
--0--0--0--0-----0-----0--|-----0--0-----0-----0-----|
--0--0--0--0-----0-----0--|-----0--0-----0-----0-----|
--0--0--0--0-----0-----0--|-----0--0-----0-----0-----|
 
 
  E  E  E  E  E  E  E  E     E  E  E  E  E  E  E  E     E  E  E  Q.     E  E   
--------------------------|--------------------------|------------------------|
--------------------------|--------------------------|------------------------|
--------------------------|--------------------------|------------------------|
--0--0--0--0-----0-----0--|-----0--0-----0-----0-----|--8--8--8--8------8--8--|
--0--0--0--0-----0-----0--|-----0--0-----0-----0-----|--8--8--8--8------8--8--|
--0--0--0--0-----0-----0--|-----0--0-----0-----0-----|--8--8--8--8------8--8--|
 
 
  E  Q.     E  E  E  E     E  E  E  Q.     E  E     E  Q.      E   E   E   E   
------------------------|------------------------|----------------------------|
------------------------|------------------------|----------------------------|
------------------------|------------------------|------------14--14--14--14--|
--8--8------8--8--8--8--|--5--5--5--5------5--5--|--5--5-------x---x---x---x--|
--8--8------8--8--8--8--|--5--5--5--5------5--5--|--5--5------12--12--12--12--|
--8--8------8--8--8--8--|--5--5--5--5------5--5--|--5--5----------------------|
 
 
  E  E  E  E  E  E  E  E     E  E  E  E  E  E  E  E   
--------------------------|--------------------------|
--------------------------|--------------------------|
--------------------------|--------------------------|
--0--0--0--0-----0-----0--|-----0--0-----0-----0-----|
--0--0--0--0-----0-----0--|-----0--0-----0-----0-----|
--0--0--0--0-----0-----0--|-----0--0-----0-----0-----|
 
 
  E  E  E  E  E  E  E  E     E  E  E  E  E  E  E  E     E  E  E  Q.     E  E   
--------------------------|--------------------------|------------------------|
--------------------------|--------------------------|------------------------|
--------------------------|--------------------------|------------------------|
--0--0--0--0-----0-----0--|-----0--0-----0-----0-----|--5--5--5--5------5--5--|
--0--0--0--0-----0-----0--|-----0--0-----0-----0-----|--5--5--5--5------5--5--|
--0--0--0--0-----0-----0--|-----0--0-----0-----0-----|--5--5--5--5------5--5--|
 
 
  E  Q.     E  E  E  E     E  E  E  Q.     E  E     E  Q.     E  E  E  E   
------------------------|------------------------|------------------------|
------------------------|------------------------|------------------------|
------------------------|------------------------|------------------------|
--5--5------5--5--5--5--|--8--8--8--8------8--8--|--8--8------8--8--8--8--|
--5--5------5--5--5--5--|--8--8--8--8------8--8--|--8--8------8--8--8--8--|
--5--5------5--5--5--5--|--8--8--8--8------8--8--|--8--8------8--8--8--8--|
 
 
  E  E  E  E  E  E  E  E     E  E  E  E  E  E  E  E   
--------------------------|--------------------------|
--------------------------|--------------------------|
--------------------------|--------------------------|
--0--0--0--0--0--0--0--0--|--0--0--0--0--0--0--0--0--|
--0--0--0--0--0--0--0--0--|--0--0--0--0--0--0--0--0--|
--0--0--0--0--0--0--0--0--|--0--0--0--0--0--0--0--0--|
 
 
  E  E  E  E  E  E  E  E     E  E  E  E  E  E  E  E   
--------------------------|--------------------------|
--------------------------|--------------------------|
--------------------------|--------------------------|
--0--0--0--0--0--0--0--0--|--0--0--0--0--0--0--0--0--|
--0--0--0--0--0--0--0--0--|--0--0--0--0--0--0--0--0--|
--0--0--0--0--0--0--0--0--|--0--0--0--0--0--0--0--0--|
 
 
  E  E  E  E  E  E  E  E     E  E  E  E  E  E  E  E   
--------------------------|--------------------------|
--------------------------|--------------------------|
--------------------------|--------------------------|
--5--5--5--5--5--5--5--5--|--5--5--5--5--5--5--5--5--|
--5--5--5--5--5--5--5--5--|--5--5--5--5--5--5--5--5--|
--5--5--5--5--5--5--5--5--|--5--5--5--5--5--5--5--5--|
 
 
  E  E  E  E  E  E  E  E     E  E  E  E  E  E  E  E   
--------------------------|--------------------------|
--------------------------|--------------------------|
--------------------------|--------------------------|
--8--8--8--8--8--8--8--8--|--8--8--8--8--8--8--8--8--|
--8--8--8--8--8--8--8--8--|--8--8--8--8--8--8--8--8--|
--8--8--8--8--8--8--8--8--|--8--8--8--8--8--8--8--8--|
 
 
  E  E  E  E  E  E  E  E     E  E  E  E  E  E  E  E   
--------------------------|--------------------------|
--------------------------|--------------------------|
--------------------------|--------------------------|
--0--0--0--0--0--0--0--0--|--0--0--0--0--0--0--0--0--|
--0--0--0--0--0--0--0--0--|--0--0--0--0--0--0--0--0--|
--0--0--0--0--0--0--0--0--|--0--0--0--0--0--0--0--0--|
 
 
  E  E  E  E  E  E  E  E     E  E  E  E  E  E  E  E   
--------------------------|--------------------------|
--------------------------|--------------------------|
--------------------------|--------------------------|
--0--0--0--0--0--0--0--0--|--0--0--0--0--0--0--0--0--|
--0--0--0--0--0--0--0--0--|--0--0--0--0--0--0--0--0--|
--0--0--0--0--0--0--0--0--|--0--0--0--0--0--0--0--0--|
 
 
  E  E  E  E  E  E  E  E     E  E  E  E  E  E  E  E   
--------------------------|--------------------------|
--------------------------|--------------------------|
--------------------------|--------------------------|
--5--5--5--5--5--5--5--5--|--5--5--5--5--5--5--5--5--|
--5--5--5--5--5--5--5--5--|--5--5--5--5--5--5--5--5--|
--5--5--5--5--5--5--5--5--|--5--5--5--5--5--5--5--5--|
 
 
  E  E  E  E  E  E  E  E     E  E  E  E  E  E  E  E     Q.     Q.     Q     
--------------------------|--------------------------|---------------------|
--------------------------|--------------------------|---------------------|
--------------------------|--------------------------|---------------------|
--8--8--8--8--8--8--8--8--|--8--8--8--8--8--8--8--8--|--0-------------0----|
--8--8--8--8--8--8--8--8--|--8--8--8--8--8--8--8--8--|--0-------------0----|
--8--8--8--8--8--8--8--8--|--8--8--8--8--8--8--8--8--|--0-------------0----|
 
 
  E  Q.     E  E  E  E     Q.     Q.     Q       E  Q.     E  E  Q     
------------------------|---------------------|-----------------------|
------------------------|---------------------|-----------------------|
------------------------|---------------------|-----------------------|
--L---------0--0--0--0--|--0-------------0----|--L---------0--0-------|
--L---------0--0--0--0--|--0-------------0----|--L---------0--0-------|
--L---------0--0--0--0--|--0-------------0----|--L---------0--0-------|
 
 
  Q.     Q.     Q       E  Q.     E  E  E  E     Q.     Q.     Q     
---------------------|------------------------|---------------------|
---------------------|------------------------|---------------------|
---------------------|------------------------|---------------------|
--0-------------0----|--L---------0--0--0--0--|--0-------------0----|
--0-------------0----|--L---------0--0--0--0--|--0-------------0----|
--0-------------0----|--L---------0--0--0--0--|--0-------------0----|
 
 
  E  Q.     E  E  Q       Q.     Q.     Q       E  Q.     E  E  E  E   
-----------------------|---------------------|------------------------|
-----------------------|---------------------|------------------------|
-----------------------|---------------------|------------------------|
--L---------0--0-------|--0-------------0----|--L---------0--0--0--0--|
--L---------0--0-------|--0-------------0----|--L---------0--0--0--0--|
--L---------0--0-------|--0-------------0----|--L---------0--0--0--0--|
 
 
  Q.     Q.     Q       E  Q.     E  E  Q       Q.     Q.     Q     
---------------------|-----------------------|---------------------|
---------------------|-----------------------|---------------------|
---------------------|-----------------------|---------------------|
--0-------------0----|--L---------0--0-------|--0-------------0----|
--0-------------0----|--L---------0--0-------|--0-------------0----|
--0-------------0----|--L---------0--0-------|--0-------------0----|
 
 
  E  Q.     E  E  E  E     Q.     Q.     Q       E  Q.     E  E  E  E         
------------------------|---------------------|------------------------|-----|
------------------------|---------------------|------------------------|-----|
------------------------|---------------------|------------------------|-----|
--L---------0--0--0--0--|--0-------------0----|--L---------8--8--------|-----|
--L---------0--0--0--0--|--0-------------0----|--L---------8--8--------|-----|
--L---------0--0--0--0--|--0-------------0----|--L---------8--8--------|-----|
 
 
  E  E  E  E  E  E  E  E     E  E  E  E  E  E  E  E   
--------------------------|--------------------------|
--------------------------|--------------------------|
--------------------------|--------------------------|
--0--0--0--0-----0-----0--|-----0--0-----0-----0-----|
--0--0--0--0-----0-----0--|-----0--0-----0-----0-----|
--0--0--0--0-----0-----0--|-----0--0-----0-----0-----|
 
 
  E  E  E  E  E  E  E  E     E  E  E  E  E  E  E  E     E  E  E  Q.     E  E   
--------------------------|--------------------------|------------------------|
--------------------------|--------------------------|------------------------|
--------------------------|--------------------------|------------------------|
--0--0--0--0-----0-----0--|-----0--0-----0-----0-----|--8--8--8--8------8--8--|
--0--0--0--0-----0-----0--|-----0--0-----0-----0-----|--8--8--8--8------8--8--|
--0--0--0--0-----0-----0--|-----0--0-----0-----0-----|--8--8--8--8------8--8--|
 
 
  E  Q.     E  E  E  E     E  E  E  Q.     E  E     E  Q.      E   E   E   E   
------------------------|------------------------|----------------------------|
------------------------|------------------------|----------------------------|
------------------------|------------------------|------------14--14--14--14--|
--8--8------8--8--8--8--|--5--5--5--5------5--5--|--5--5-------x---x---x---x--|
--8--8------8--8--8--8--|--5--5--5--5------5--5--|--5--5------12--12--12--12--|
--8--8------8--8--8--8--|--5--5--5--5------5--5--|--5--5----------------------|
 
 
  E  E  E  E  E  E  E  E     E  E  E  E  E  E  E  E   
--------------------------|--------------------------|
--------------------------|--------------------------|
--------------------------|--------------------------|
--0--0--0--0-----0-----0--|-----0--0-----0-----0-----|
--0--0--0--0-----0-----0--|-----0--0-----0-----0-----|
--0--0--0--0-----0-----0--|-----0--0-----0-----0-----|
 
 
  E  E  E  E  E  E  E  E     E  E  E  E  E  E  E  E     E  E  E  Q.     E  E   
--------------------------|--------------------------|------------------------|
--------------------------|--------------------------|------------------------|
--------------------------|--------------------------|------------------------|
--0--0--0--0-----0-----0--|-----0--0-----0-----0-----|--5--5--5--5------5--5--|
--0--0--0--0-----0-----0--|-----0--0-----0-----0-----|--5--5--5--5------5--5--|
--0--0--0--0-----0-----0--|-----0--0-----0-----0-----|--5--5--5--5------5--5--|
 
 
  E  Q.     E  E  E  E     E  E  E  Q.     E  E     E  Q.     E  E  E  E   
------------------------|------------------------|------------------------|
------------------------|------------------------|------------------------|
------------------------|------------------------|------------------------|
--5--5------5--5--5--5--|--8--8--8--8------8--8--|--8--8------8--8--8--8--|
--5--5------5--5--5--5--|--8--8--8--8------8--8--|--8--8------8--8--8--8--|
--5--5------5--5--5--5--|--8--8--8--8------8--8--|--8--8------8--8--8--8--|
 
 
  E  E  E  E  E  E  E  E     E  E  E  E  E  E  E  E   
--------------------------|--------------------------|
--------------------------|--------------------------|
--------------------------|--------------------------|
--0--0--0--0--0--0--0--0--|--0--0--0--0--0--0--0--0--|
--0--0--0--0--0--0--0--0--|--0--0--0--0--0--0--0--0--|
--0--0--0--0--0--0--0--0--|--0--0--0--0--0--0--0--0--|
 
 
  E  E  E  E  E  E  E  E     E  E  E  E  E  E  E  E   
--------------------------|--------------------------|
--------------------------|--------------------------|
--------------------------|--------------------------|
--0--0--0--0--0--0--0--0--|--0--0--0--0--0--0--0--0--|
--0--0--0--0--0--0--0--0--|--0--0--0--0--0--0--0--0--|
--0--0--0--0--0--0--0--0--|--0--0--0--0--0--0--0--0--|
 
 
  E  E  E  E  E  E  E  E     E  E  E  E  E  E  E  E   
--------------------------|--------------------------|
--------------------------|--------------------------|
--------------------------|--------------------------|
--5--5--5--5--5--5--5--5--|--5--5--5--5--5--5--5--5--|
--5--5--5--5--5--5--5--5--|--5--5--5--5--5--5--5--5--|
--5--5--5--5--5--5--5--5--|--5--5--5--5--5--5--5--5--|
 
 
  E  E  E  E  E  E  E  E     E  E  E  E  E  E  E  E   
--------------------------|--------------------------|
--------------------------|--------------------------|
--------------------------|--------------------------|
--8--8--8--8--8--8--8--8--|--8--8--8--8--8--8--8--8--|
--8--8--8--8--8--8--8--8--|--8--8--8--8--8--8--8--8--|
--8--8--8--8--8--8--8--8--|--8--8--8--8--8--8--8--8--|
 
 
  E  E  E  E  E  E  E  E     E  E  E  E  E  E  E  E   
--------------------------|--------------------------|
--------------------------|--------------------------|
--------------------------|--------------------------|
--0--0--0--0--0--0--0--0--|--0--0--0--0--0--0--0--0--|
--0--0--0--0--0--0--0--0--|--0--0--0--0--0--0--0--0--|
--0--0--0--0--0--0--0--0--|--0--0--0--0--0--0--0--0--|
 
 
  E  E  E  E  E  E  E  E     E  E  E  E  E  E  E  E   
--------------------------|--------------------------|
--------------------------|--------------------------|
--------------------------|--------------------------|
--0--0--0--0--0--0--0--0--|--0--0--0--0--0--0--0--0--|
--0--0--0--0--0--0--0--0--|--0--0--0--0--0--0--0--0--|
--0--0--0--0--0--0--0--0--|--0--0--0--0--0--0--0--0--|
 
 
  E  E  E  E  E  E  E  E     E  E  E  E  E  E  E  E   
--------------------------|--------------------------|
--------------------------|--------------------------|
--------------------------|--------------------------|
--5--5--5--5--5--5--5--5--|--5--5--5--5--5--5--5--5--|
--5--5--5--5--5--5--5--5--|--5--5--5--5--5--5--5--5--|
--5--5--5--5--5--5--5--5--|--5--5--5--5--5--5--5--5--|
 
 
  E  E  E  E  E  E  E  E     E  E  E  E  E  E  E  E     Q.     Q.     Q     
--------------------------|--------------------------|---------------------|
--------------------------|--------------------------|---------------------|
--------------------------|--------------------------|---------------------|
--8--8--8--8--8--8--8--8--|--8--8--8--8--8--8--8--8--|--0-------------0----|
--8--8--8--8--8--8--8--8--|--8--8--8--8--8--8--8--8--|--0-------------0----|
--8--8--8--8--8--8--8--8--|--8--8--8--8--8--8--8--8--|--0-------------0----|
 
 
  E  Q.     E  E  E  E     Q.     Q.     Q       E  Q.     Q    Q     
------------------------|---------------------|----------------------|
------------------------|---------------------|----------------------|
------------------------|---------------------|----------------------|
--L---------0-----0-----|--0-------------0----|--L---------0---------|
--L---------0-----0-----|--0-------------0----|--L---------0---------|
--L---------0-----0-----|--0-------------0----|--L---------0---------|
 
 
  Q.     Q.     Q       E  Q.     E  E  E  E     Q.     Q.     Q     
---------------------|------------------------|---------------------|
---------------------|------------------------|---------------------|
---------------------|------------------------|---------------------|
--0-------------0----|--L---------0-----0-----|--0-------------0----|
--0-------------0----|--L---------0-----0-----|--0-------------0----|
--0-------------0----|--L---------0-----0-----|--0-------------0----|
 
 
  E  Q.     Q    Q       E  E  E  Q.     E  E     E  Q.     E  E  E  E   
----------------------|------------------------|------------------------|
----------------------|------------------------|------------------------|
----------------------|------------------------|------------------------|
--L-------------------|--0--0--0--0------0--0--|--0--0------0--0--0--0--|
--L-------------------|--0--0--0--0------0--0--|--0--0------0--0--0--0--|
--L-------------------|--0--0--0--0------0--0--|--0--0------0--0--0--0--|
 
 
  E  E  E  Q.     E  E     E  Q.     E  E  E  E     E  E  E  Q.     E  E   
------------------------|------------------------|------------------------|
------------------------|------------------------|------------------------|
------------------------|------------------------|------------------------|
--0--0--0--0------0--0--|--0--0------0--0--0--0--|--0--0--0--0------0--0--|
--0--0--0--0------0--0--|--0--0------0--0--0--0--|--0--0--0--0------0--0--|
--0--0--0--0------0--0--|--0--0------0--0--0--0--|--0--0--0--0------0--0--|
 
 
  E  Q.     E  E  E  E     E  E  E  Q.     E  E     E  Q.     E  E  E  E   
------------------------|------------------------|------------------------|
------------------------|------------------------|------------------------|
------------------------|------------------------|------------------------|
--0--0------0--0--0--0--|--0--0--0--0------0--0--|--0--0------0--0--0--0--|
--0--0------0--0--0--0--|--0--0--0--0------0--0--|--0--0------0--0--0--0--|
--0--0------0--0--0--0--|--0--0--0--0------0--0--|--0--0------0--0--0--0--|
 
 
  E  E  E  Q.     E  E     E  Q.     E  E  E  E     E  E  E  Q.     E  E   
------------------------|------------------------|------------------------|
------------------------|------------------------|------------------------|
------------------------|------------------------|------------------------|
--0--0--0--0------0--0--|--0--0------0--0--0--0--|--0--0--0--0------0--0--|
--0--0--0--0------0--0--|--0--0------0--0--0--0--|--0--0--0--0------0--0--|
--0--0--0--0------0--0--|--0--0------0--0--0--0--|--0--0--0--0------0--0--|
 
 
  E  Q.     E  E  E  E     E  E  E  Q.     E  E     E  Q.     E  E  E  E   
------------------------|------------------------|------------------------|
------------------------|------------------------|------------------------|
------------------------|------------------------|------------------------|
--0--0------0--0--0--0--|--3--3--3--3------3--3--|--3--3------3--3--3--3--|
--0--0------0--0--0--0--|--3--3--3--3------3--3--|--3--3------3--3--3--3--|
--0--0------0--0--0--0--|--3--3--3--3------3--3--|--3--3------3--3--3--3--|
 
 
  E  E  E  Q.     E  E     E  Q.     E  E  E  E     E  E  E  Q.     E  E   
------------------------|------------------------|------------------------|
------------------------|------------------------|------------------------|
------------------------|------------------------|------------------------|
--5--5--5--5------8--8--|--8--8------8--8--8--8--|--0--0--0--0------0--0--|
--5--5--5--5------8--8--|--8--8------8--8--8--8--|--0--0--0--0------0--0--|
--5--5--5--5------8--8--|--8--8------8--8--8--8--|--0--0--0--0------0--0--|
 
 
  E  Q.     E  E  E  E     E  E  E  Q.     E  E     E  Q.     E  E  E  E   
------------------------|------------------------|------------------------|
------------------------|------------------------|------------------------|
------------------------|------------------------|------------------------|
--0--0------0--0--0--0--|--0--0--0--0------0--0--|--0--0------0--0--0--0--|
--0--0------0--0--0--0--|--0--0--0--0------0--0--|--0--0------0--0--0--0--|
--0--0------0--0--0--0--|--0--0--0--0------0--0--|--0--0------0--0--0--0--|
 
 
  E  E  E  Q.     E  E     E  Q.     E  E  E  E     E  E  E  Q.     E  E   
------------------------|------------------------|------------------------|
------------------------|------------------------|------------------------|
------------------------|------------------------|------------------------|
--3--3--3--3------3--3--|--3--3------3--3--3--3--|--5--5--5--5------8--8--|
--3--3--3--3------3--3--|--3--3------3--3--3--3--|--5--5--5--5------8--8--|
--3--3--3--3------3--3--|--3--3------3--3--3--3--|--5--5--5--5------8--8--|
 
 
  E  Q.     E  E  E  E     E  E  E  E  E  E  E  E     E  E  E  E  E  E  E  E   
------------------------|--------------------------|--------------------------|
------------------------|--------------------------|--------------------------|
------------------------|--------------------------|--------------------------|
--8--8------8--8--8--8--|--0--0--0--0--0--0--0--0--|--0--0--0--0--0--0--0--0--|
--8--8------8--8--8--8--|--0--0--0--0--0--0--0--0--|--0--0--0--0--0--0--0--0--|
--8--8------8--8--8--8--|--0--0--0--0--0--0--0--0--|--0--0--0--0--0--0--0--0--|
 
 
  E  E  E  E  E  E  E  E     E  E  E  E  E  E  E  E   
--------------------------|--------------------------|
--------------------------|--------------------------|
--------------------------|--------------------------|
--0--0--0--0--0--0--0--0--|--0--0--0--0--0--0--0--0--|
--0--0--0--0--0--0--0--0--|--0--0--0--0--0--0--0--0--|
--0--0--0--0--0--0--0--0--|--0--0--0--0--0--0--0--0--|
 
 
  E  E  E  E  E  E  E  E     E  E  E  E  E  E  E  E   
--------------------------|--------------------------|
--------------------------|--------------------------|
--------------------------|--------------------------|
--3--3--3--3--3--3--3--3--|--3--3--3--3--3--3--3--3--|
--3--3--3--3--3--3--3--3--|--3--3--3--3--3--3--3--3--|
--3--3--3--3--3--3--3--3--|--3--3--3--3--3--3--3--3--|
 
 
  E  E  E  E  E  E  E  E     E  E  E  E  E  E  E  E   
--------------------------|--------------------------|
--------------------------|--------------------------|
--------------------------|--------------------------|
--5--5--5--5--5--5--8--8--|--8--8--8--8--8--8--8--8--|
--5--5--5--5--5--5--8--8--|--8--8--8--8--8--8--8--8--|
--5--5--5--5--5--5--8--8--|--8--8--8--8--8--8--8--8--|
 
 
  E  E  E  E  E  E  E  E     E  E  E  E  E  E  E  E   
--------------------------|--------------------------|
--------------------------|--------------------------|
--------------------------|--------------------------|
--0--0--0--0--0--0--0--0--|--0--0--0--0--0--0--0--0--|
--0--0--0--0--0--0--0--0--|--0--0--0--0--0--0--0--0--|
--0--0--0--0--0--0--0--0--|--0--0--0--0--0--0--0--0--|
 
 
  E  E  E  E  E  E  E  E     E  E  E  E  E  E  E  E   
--------------------------|--------------------------|
--------------------------|--------------------------|
--------------------------|--------------------------|
--0--0--0--0--0--0--0--0--|--0--0--0--0--0--0--0--0--|
--0--0--0--0--0--0--0--0--|--0--0--0--0--0--0--0--0--|
--0--0--0--0--0--0--0--0--|--0--0--0--0--0--0--0--0--|
 
 
  E  E  E  E  E  E  E  E     E  E  E  E  E  E  E  E   
--------------------------|--------------------------|
--------------------------|--------------------------|
--------------------------|--------------------------|
--3--3--3--3--3--3--3--3--|--3--3--3--3--3--3--3--3--|
--3--3--3--3--3--3--3--3--|--3--3--3--3--3--3--3--3--|
--3--3--3--3--3--3--3--3--|--3--3--3--3--3--3--3--3--|
 
 
  E  E  E  E  E  E  E  E     E  E  E  E  E  E  E  E     Q.     Q.     Q     
--------------------------|--------------------------|---------------------|
--------------------------|--------------------------|---------------------|
--------------------------|--------------------------|---------------------|
--5--5--5--5--5--5--8--8--|--8--8--8--8--8--8--8--8--|--0-------------0----|
--5--5--5--5--5--5--8--8--|--8--8--8--8--8--8--8--8--|--0-------------0----|
--5--5--5--5--5--5--8--8--|--8--8--8--8--8--8--8--8--|--0-------------0----|
 
 
  E  Q.     E  E  E  E     Q.     Q.     Q       W                 
------------------------|---------------------|-------------------|
------------------------|---------------------|-------------------|
------------------------|---------------------|-------------------|
--L---------0-----0-----|--0-------------0----|--L----------------|
--L---------0-----0-----|--0-------------0----|--L----------------|
--L---------0-----0-----|--0-------------0----|--L----------------|
 
 
  W                   W                   W                  
-------------------|-------------------|-------------------||
-------------------|-------------------|-------------------||
-------------------|-------------------|-------------------||
--L----------------|--L----------------|--L----------------||
--L----------------|--L----------------|--L----------------||
--L----------------|--L----------------|--L----------------||




 
 
 
Duration Legend
---------------
W - whole
H - half
Q - quarter
E - 8th
S - 16th
T - 32nd
X - 64th
. - note dotted
|-n-|  - n-tuplets
 
 
Tablature Legend
----------------
L - tied note
x - dead note
g - grace note
(n) - ghost note
> - accentuded note
NH - natural harmonic
AH - artificial harmonic
TH - tapped harmonic
SH - semi harmonic
PH - pitch harmonic
h - hammer on
p - pull off
b - bend
br - bendRelease
pb - preBend
pbr - preBendRelease
brb - bendReleaseBend
\n/ - tremolo bar dip
\n - tremolo bar dive
-/n - tremolo bar Release up
/n\ - tremolo bar inverted dip
/n - tremolo bar return
-\n - tremolo bar Release down
S - shift slide
s - legato slide
/ -  slide into from below or out of upwards
\ -  slide into from above or out of downwards
~ - vibrato
W - wide vibrato
tr - tril'
TP - tremolo picking
T - tapping
S - slap
P - pop
< - fade in
^ - brush up
v - brush down

hope you enjoy...
For probs. mail me Ancients23@yhoo.com

            
            
Suggest correction
Creating personal tab
Creating personal tab
You can edit any tab online and save it as your Personal.

You can edit, replace or remove any tab part or add personal notes – all changes will be seen only by you.

Personal tabs can be accessed anytime from any device, even offline.
Learn more »
comments
print report bad tab
2 comments total.
0 reply
guitard00d13 53 Mar 07, 2011 07:35 PM

after the 15h slide to 17, try the same thing except on the g string and then do the 14h pulloff to 7

0 reply
guitard00d13 53 Mar 07, 2011 07:37 PM

*i.e.
E||-------------------------------------|
B||--17p--6-----------------------------|
G||----------15p--7-----------15h--17s--|
D||------------------15h--17s-----------|
A||-------------------------------------|
D||-------------------------------------|

guest
Wanna post a correction for this tab? Suggest correction