Oops, an error
Loading. Please wait.

Wait For Tomorrow bass

version 1
version 1

Whole song

Interactive

6,225 views 1 this week
1 commentread comment
1 2 3 4 5
2 more votes to show rating
add to favorites
×
Save as Personal and add changes to this tab that will be seen only by you. Learn more ›
×
You can save this tab as Personal to edit and correct it or add notes. All changes will be seen only by you. Learn more »
launch autoscroll
font size
0
reset
guitar tuner
edit
Autoscroll
slow
fast
+/-
esc
set tempo
stop
----------------------------------------------------------------------------
			     Wait for tomorrow - Blessthefall
----------------------------------------------------------------------------

Tabbed By : benn10
e-mail: bendavo@hotmail.co.uk

Tuning: Drop D

come in at 0.15

1st part

G|--------------------------------------------------------------|
D|--------------------------------------------------------------|    X3
A|--------------------------12-11---12-11-----------------------|
D|0---------2----------4---------12------12---------------------|

G|--------------------------------------------------------------|
D|--------------------------------------------------------------|    
A|--------------------------12-11---12-11-----------------------|
D|0---------2----------4---------12------12---------0-----------|

2nd part

G|-----------------------------------|
D|-----------------------------------|   X4
A|-----------------------------------|
D|4444444444444444-00000000-22222222-|

3rd part

G|--------------------------------------------------------------|
D|--------------------------------------------------------------|   X2
A|--------------------------------------------------------------|
D|4-4-4-4----0-0-0-0----4-4-4-4----0-0-0-0-2-2-2-2--------------|

2nd part (again)

3rd part (again)

4th part

G|--------------------------------------------------------------|
D|--------------------------------------------------------------|   X4
A|-----------12-11-----12-11------------------------------------|
D|4-4-4-4---------12--------12-----0-0-0-0-2-2-2-2--------------|

G|--------------------------------------------------------------|
D|--------------------------------------------------------------|   X4
A|-----------12-11-----12-11------------------------------------|
D|4-4-4-4---------12--------12-----0----------------------------|

Come in at 2.51


G|-----------------------------------|
D|-----------------------------------|   X6
A|-----------------------------------|
D|4444444444444444-00000000-22222222-|

G|--------------------------------------------------|
D|--------------------------------------------------|  
A|--------------------------------------------------|
D|4444444444444444-00000000-22222222---44-----------|

This is my first tab but im pretty sure this is correct.
Thnx

| /  slide up
| \  slide down
| h  hammer-on
| p  pull-off
| ~  vibrato
| +  harmonic
| x  Mute note

            
            
Suggest correction
Creating personal tab
Creating personal tab
You can edit any tab online and save it as your Personal.

You can edit, replace or remove any tab part or add personal notes – all changes will be seen only by you.

Personal tabs can be accessed anytime from any device, even offline.
Learn more »
Give kudos to tab author, rate the tab!
1 2 3 4 5
comments
print report bad tab
1 comment total.
0 reply
Adrianmomo 10 Apr 12, 2013 12:12 PM

gracias por la cnacion eso de 12-11---12-11--- corige eso e diferennte ok y listo todo lo demas es correcto gracias
--12------12-

guest
You may want to rate the tab now too:
select rating
Wanna post a correction for this tab? Suggest correction