Oops, an error
Loading. Please wait.

Hes In The Jailhouse Now tab

9,589 views 9 this week
1 commentread comment
1 2 3 4 5
x 5
add to favorites
×
Save as Personal and add changes to this tab that will be seen only by you. Learn more ›
×
You can save this tab as Personal to edit and correct it or add notes. All changes will be seen only by you. Learn more »
launch autoscroll
font size
0
reset
how to read this tab
guitar tuner
edit
Autoscroll
slow
fast
+/-
esc
set tempo
stop
Author
rack 1
                                                              
E||-------0---------0----|--5---------3---------|---------------0-----------|
B||--1---------4---------|-------3---------3----|-------1--3g4-----1--------|
G||----------------------|-------4---------4----|-------0-------------2--0--|
D||-------2---------2----|-------5---------5----|-------2-------------------|
A||--3---------3---------|----------------------|--3------------------------|
E||----------------------|------------3---------|---------------------------|


                         Verse                                                                    
--------1----0--------|-------0---------0----|-------0---------0----|
--1----------1--------|-------1---------1----|-------1---------1----|
-----0----------------|-------0---------0----|-------0---------0----|
----------------------|-------2---------2----|-------2---------2----|
--3-----2----3--------|--3-------------------|--3-------------------|
--------3-------------|------------3---------|------------3---------|


                                                         
-------0---------0----|-------0----------0----|-------0---------0----|
-------1---------1----|-------1----------1----|-------1---------1----|
-------0---------0----|-------0-------0--0----|-------0---------0----|
-------2---------2----|-------2----------2----|-------2---------2----|
--3-------------------|--3--------------------|--3-------------------|
------------3---------|------------3----------|------------3---------|


                                                           
-------0---------0----|--------1-----0h--1--------|--1-----0h--1------------|
-------1---------1----|-----------0------------0--|-----0-------------------|
-------0---------0----|---------------------------|-------------------------|
-------2---------2----|--------0------------0-----|--------0-----------0----|
--3-------------------|---------------------------|-------------------------|
------------3---------|--3-----------3------------|--3------------3---------|


                                                          
-------1---------1----|--------1-----0h--1-------|-------1---------1----|
-------3---------3----|-----------3--------------|-------3---------3----|
-------0---------0----|--------------------------|-------0---------0----|
-------0----0----0----|--------0------------0----|-------0----0----0----|
----------------------|--------------------------|----------------------|
--3-------------------|--3-----------3-----------|--3-------------------|


                                                         
-------1----------1----|-------0---------0----|-------0---------0----|
-------3-------0--3----|-------3---------3----|-------3---------3----|
-------0----------0----|-------5---------5----|-------5---------5----|
-------0----0-----0----|-------4---------4----|-------4---------4----|
-----------------------|--5-------------------|--5-------------------|
--3--------------------|------------5---------|------------5---------|

                                                 Verse 2
                                                         
--3--------------------|------------1-----------|-------0---------0----|
--0--------------------|------------0-----------|-------1---------1----|
--0--------------------|------------0-----------|-------0---------0----|
--0--------------------|------------0-----------|-------2---------2----|
--2----------0----1----|--2---------2-----------|--3-------------------|
--3-------3------------|------------3-----------|------------3---------|


                                                         
-------0---------0----|-------0---------0----|-------0----------0----|
-------1---------1----|-------1---------1----|-------1----------1----|
-------0---------0----|-------0---------0----|-------0-------0--0----|
-------2---------2----|-------2---------2----|-------2----------2----|
--3-------------------|--3-------------------|--3--------------------|
------------3---------|------------3---------|------------3----------|


                                                          
-------0---------0----|-------0---------0----|--------1-----0h--1--------|
-------1---------1----|-------1---------1----|-----------0------------0--|
-------0---------0----|-------0---------0----|---------------------------|
-------2---------2----|-------2---------2----|--------0------------0-----|
--3-------------------|--3-------------------|---------------------------|
------------3---------|------------3---------|--3-----------3------------|


                                                          
--1-----0h--1------------|-------2---------2----|-------2----2---------|
-----0-------------------|-------1---------1----|-------1----1---------|
-------------------------|-------2---------2----|-------2----2---------|
--------0-----------0----|--0----0---------0----|--0----0----0---------|
-------------------------|------------0---------|-----------------0----|
--3------------3---------|----------------------|----------------------|


                                                         
-------0---------0----|-------0---------0----|--3--------------------|
-------3---------3----|-------3---------3----|--0--------------------|
-------5---------5----|-------5---------5----|--0--------------------|
-------4---------4----|-------4---------4----|--0--------------------|
--5-------------------|--5-------------------|--2----------0----1----|
------------5---------|------------5---------|--3-------3------------|


                           Chorus                              
-------3-----3----------|-------0---------0----|-------1---------3----|
-------0-----0-------1--|------------4---------|-------1---------0----|
-------0-----0----------|----------------------|--2----2----0----0----|
-------0-----0----0-----|-------2--------------|-------3---------0----|
--2----2-----2----------|--3---------3---------|----------------------|
-------3-----3----------|----------------------|----------------------|


                                                          
------------------------|-------0-------0--0----|-------1----1----1----|
-------3b----3--1-------|--1----1----1-----1----|-------1----1----1----|
-------------------2----|-------0----------0----|--2----2----2----2----|
------------------------|-------2----------2----|-------3----3----3----|
--3---------------------|--3--------------------|----------------------|
------------------------|------------3----------|----------------------|


                                                         
--1-------1-------1----|-------0-------0--0----|-------0--0-----0--0----|
--1----1----------1----|-------1----------1----|-------1-----------1----|
--2----2----------2----|-------0----------0----|-------0-----------0----|
--3----3----------3----|-------2----------2----|-------2-----------2----|
-----------------------|--3--------------------|--3---------------------|
-------------1---------|------------3----------|-------------3----------|


                                                         
-------1----1---------|-------2----2---------|-------0--------------|
-------1----1---------|-------1----1---------|-------1--------------|
-------2----2---------|-------2----2---------|-------0--------------|
--3----3----3----0----|--1----1----1----2----|-------2--------------|
----------------------|----------------------|--3---------2----1----|
----------------------|----------------------|----------------------|


                                                         
-------3----3----3----|-------0---------0----|--5---------3---------|
-------2----2----2----|-------1---------1----|-------3---------3----|
-------2----2----2----|-------0---------0----|-------4---------4----|
-------2----2----2----|-------2---------2----|-------5---------5----|
--0-------------------|--3-------------------|----------------------|
----------------------|------------3---------|----------------------|

                                                     Guitar Break
                                                           
--------------0-----------|-------3--3-----3-------|-------0---------0----|
-------3g4-------1--------|--1----------1-----1----|--1---------4---------|
--------------------2--0--|------------------------|----------------------|
--------------------------|------------------------|-------2---------2----|
--3-----------------------|--3----------------3----|--3---------3---------|
--------------------------|------------------------|----------------------|


                                                           
--5---------3---------|--------------0-----------|--------------------0----|
-------3---------3----|-------3s--4-----1--------|--------------------1----|
-------4---------4----|--------------------2--0--|--------------------0----|
-------5---------5----|--------------------------|--1--0--------------2----|
----------------------|--3-----------------------|--------3--0h--3---------|
------------3---------|--------------------------|-------------------------|


                                                         
-------1---------1----|-------2----2----2----|-------3--0-------------|
-------1---------1----|-------1----1----1----|-------1-----1----------|
-------2----2----2----|-------2----2----2----|-------0--------2--0----|
--3----3---------3----|--1----1----1----1----|-------2----------------|
----------------------|----------------------|--3---------------------|
----------------------|----------------------|------------------------|


                       .                                    
-------------0--0----0------|---------1--------------|--5----------/8----8----|
-----------1----1----1------|---------1--------------|--------4----/7----7----|
---------0------0----0------|--2------2--------------|-----5-------/8----8----|
-------2--------2----2------|---------3--------0-----|--4----------/7----7----|
--3-------------------------|---------------3--------|------------------------|
----------------------------|------------------------|------------------------|


                                                         
------------3--0-------|-------5--3------------|--0----------0----------|
--1---------------1----|--2--------------------|--1-------4-------------|
-------0---------------|-------------2---------|---------------------0--|
-----------------------|-------2---------------|-------0----------------|
--3--------------------|--0----------0---------|--0---------------------|
-----------------------|------------------2----|------------------------|


                                                  H          
-------1-------0-------|---------------0-----------|--------1----0--------||
-------0----4-------1--|-------1--3g4-----1--------|--1----------1--------||
-------0---------------|-------0-------------2--0--|-----0----------------||
-------0---------------|-------2-------------------|----------------------||
-----------------------|--3------------------------|--3-----2----3--------||
--3--------------------|---------------------------|--------3-------------||





            
            
Suggest correction
Creating personal tab
Creating personal tab
You can edit any tab online and save it as your Personal.

You can edit, replace or remove any tab part or add personal notes – all changes will be seen only by you.

Personal tabs can be accessed anytime from any device, even offline.
Learn more »
comments
print report bad tab
1 comment total.
0 reply
dougislegend 10 Feb 10, 2014 06:48 PM

Absolutely perfect! Excellent job!

guest
You may want to rate the tab now too:
select rating
Wanna post a correction for this tab? Suggest correction