Oops, an error
Loading. Please wait.

Step It Up And Go tab

760 views 21 this week
2 commentsread comments
1 2 3 4 5
x 4
add to favorites
×
Save as Personal and add changes to this tab that will be seen only by you. Learn more ›
×
You can save this tab as Personal to edit and correct it or add notes. All changes will be seen only by you. Learn more »
launch autoscroll
font size
0
reset
how to read this tab
guitar tuner
edit
Autoscroll
slow
fast
+/-
esc
set tempo
stop
Author
The verse accompaniment is very similar to the introduction and the first instrumental break.

                                     
[Intro]

  G                                           C
e|---------|-----------|-----------|---------|------------|-3-3--3-3-3---|
B|---------|-----------|-----------|---------|---1-1------|-1-1--1-1 1--1|
G|---------|-0---------|-----------|-0-------|---0-0--0--0|-------------3|
D|-----0-2-|---2-0-----|-------0-2-|---2-0---|-----2-----2|------2------2|
A|---2-----|-------1/2-|-----2-----|-------2-|-3------3---|-3--------3---|
E|-3-------|-----------|-3-3-------|---------|------------|--------------|
  
  G                          D7            C7              G
e|-------------|--3---3-3---|-------0-----|--------0------|-3-3---------|----3--3-3-3--|
B|---3----3--3-|--3--0--3---|--3-------3--|----------1----|-------------|----3--3-3-3--|
G|-3------0--0-|-----------3/5------------|-3----3--------|-----0--0--0-|--------------|
D|-----0-----0-|-----0-----2/4----4------4|------2------2-|-----3--2--1-|----0------0--|
A|-------------|-----------3/5------5-----|-3------3------|-------------|--------------|
E|-3------3----|--3-----3---|-------------|---------------|-3-----------|-3-----3------|
 
e|--------------------------|
B|--------------------------|
G|--------------------------|
D|-------------0-----2------|
A|------2-------------------|
E|3-------------------------|
  Had a little girl she was ..


[Verse 1]

G
Had a little girl, she was little and low
G
Used to love me, but she don't no more
              C
You’ve got to step it up and go,
         G
Yeah and go.
         D7
Well you can’t stay and pat it,
         C7                                    G
And I’ll tell you you’ve got to step it up and go


[Verse 2]

G
Got a little girl, she stays upstairs
G
Try to make a living, by putting on airs
              C
You’ve got to step it up and go,
      G
Yeah, yeah.
         D7
Well you can’t stay and pat it,
         C7                                     G
And I’ll swear you you’ve got to step it up and go.



[Instrumental break 1]

  G                                             C         
e|-----------|-----------|-----------|---------|------------|-3----3-3-3---|
B|-----------|-----------|-----------|---------|---1-1-----1|-1----1-1 1--1|
G|-----------|-0---------|-----------|-0-------|---0-0--0--0|-------------3|
D|-------0-2-|---2-0-----|-------0-2-|---2-0---|-----2-----2|------2------2|
A|-----2-----|-------1/2-|-----2-----|-------2-|-3------3---|-3--------3---|
E|-3-3-------|-----------|-3-3-------|---------|------------|--------------| 

  G                          D7            C7              G
e|-------------|-3----3-3---|-------0-----|--------0------|-3-3---------|----3--3-3-3--|
B|---3---------|----0-------|--3-------3--|----------1----|-------------|----3--3-3-3--|
G|-3---0--0--0-|-----------3/5------------|-3----3--------|-----0--0--0-|--------------|
D|-----0-----0-|----0------2/4----4------4|------2------2-|-----3--2--1-|-0--0------0--|
A|-------------|-----------3/5------5-----|-3------3------|-------------|--------------|
E|-3------3----|-3------3---|-------------|---------------|-3-----------|-------3------|
Yeah, yes yes.

Oh shucks.


[Verse 3]

G
Front door shut, back one too
G
Blind pulled down, what you going to do
      C
Gonna step it up and go,
         G 
Yeah and go.
         D7
Well you can’t stay and pat it,
         C7                                    G
And I’ll tell you you’ve got to step it up and go.


[Instrumental Break2] 

  G                                                   G7           C
e|-----------0-3--3-|----3----3--|-----------0-3--3--|-1-----1----|------3--0-3---|-3--0--3-3---|
B|------0-3-------3-|----3----3--|------0-3-------0--|-0-----0----|-1-1-----------|-------------|
G|---3--------------|------------|---3---------------|------------|---------------|-------------|
D|------0---------0-|----0----0--|------0---------0--|----0-----0-|------2------2-|----2------2-|
A|------------------|------------|-------------------|------------|-3-------3-----|-3-----3-----|
E|-3---------3------|--3----3----|-3---------3-------|-3-----3----|---------------|-------------|


                             D7          C7            G
e|------------|-------------|-----0-----|-------------|-3-3---------|---3--3---3-----|
B|------------|-------------|-3-3---3-3-|------0------|-------------|---3--3-3-3-----|
G|------------|-------------|-5-5-----5-|-3--3---0--0-|-----0--0--0-|----------------|
D|------------|-------------|---4-----4-|-2--2-----0--|-----3--2--1-|---0------0-----|
A|---1---1----|-1---1--3--5-|-5---5-----|-3-----------|-------------|----------------|
E|-3---3---3--|---3---------|-----------|------3------|-3-----------|-3----3---------|    
                                                                               Now

[Verse 4]

G
.. I got a little gal, whose name was ball
G
Give her a little bit, and she took it all
              C
You’ve got to step it up and go,
     G
Oooh yeah.
         D7
Well you can’t stay and pat it,
         C7                                    G      
And I’ll tell you you’ve got to step it up and go.


[Verse 5]

G
Me and my baby, walking down the street
G
Dealing everybody, but the chief of police
              C 
You’ve got to step it up and go,
     G
Mmm, yeah.
         D7
Well you can’t stay and pat it,
         C7                                     G
And I’ll swear you you’ve got to step it up and go.


[Instrumental Break 3]

  G                                                     G7           C         
e|-----------0----3-|--3-----3-3---|-----------0----3--|-1-----0-0--|---0--3-----0-3-|-3--0--3-3---|
B|------0-3---------|--3-------3---|------0-3-------0--|-0-----0----|-1-------1------|-------------|
G|---3--------------|------0-------|---3---------------|------------|----------------|-------------|
D|------0---------0-|------0------0|------0---------0--|----0-----0-|------2--------2|----2------2-|
A|------------------|--------------|-------------------|------------|-3----------3---|-3-----3-----|
E|-3---------3------|--3-----3-----|-3---------3-------|-3-----3----|----------------|-------------|


  G                            D7           C7            G      
e|-----------0-3--|-3---3-3---|------0-----|-------------|-3-3---------|-3--3--3-3-3--|
B|------0-3-------|-3-0---3---|--3-----3---|------0------|-------------|-3--3--3-3-3--|
G|---3----------0-|----------3/5-----------|-3--3---0--0-|-----0--0--0-|--------------|
D|--------------0-|---0------2/4---4-----4-|-2--2-----0--|-----3--2--1-|----0------0--|
A|----------------|----------3/5-----5-----|-3-----------|-------------|--------------|
E|-3------------3-|-3-----3---|------------|------3------|-3-----------|-3-----3------|


[Verse 6]

G
See my woman, tell her to hurry home
G
Ain't had no loving, since she been gone
       C 
Got to step it up and go,
      G
Yeah, yeah.
               D7
Well you can’t stay and pat it,
         C7                                     G
And I’ll swear you you’ve got to step it up and go.


[Verse 7]

G
Gonna sing this verse, ain't going to sing no more
G
Heared my gal callin', and I got to go
              C
You’ve got to step it up and go,
      G
Yeah, yeah.
                D7
Well you can’t stay and pat it,
         C7                                     G
And I’ll swear you you’ve got to step it up and go.


[Outro Instrumental]

  G                                             C
e|-----------|-----------|-----------|---------|------------|-3----3-3-3---|
B|-----------|-----------|-----------|---------|---1-1-----1|-1----1-1 1--1|
G|-----------|-0---------|-----------|-0-------|---0-0--0--0|-------------3|
D|-------0-2-|---2-0-----|-------0-2-|---2-0---|-----2-----2|------2------2|
A|-----2-----|-------1/2-|-----2-----|-------2-|-3------3---|-3--------3---|
E|-3-3-------|-----------|-3-3-------|---------|------------|--------------| 

  G                          D7            C7              G 
e|-------------|-3----3-3---|-------0-----|--------0------|-3-3---------|----3--3-3-3--|
B|---3---------|----0-------|--3-------3--|----------1----|-------------|----3--3-3-3--|
G|-3---0--0--0-|-----------3/5------------|-3----3--------|-----0--0--0-|--------------|
D|-----0-----0-|----0------2/4----4------4|------2------2-|-----3--2--1-|-0--0------0--|
A|-------------|-----------3/5------5-----|-3------3------|-------------|--------------|
E|-3------3----|-3------3---|-------------|---------------|-3-----------|-------3------|



************************************

| /  Slide up

************************************

            
            
Suggest correction
Creating personal tab
Creating personal tab
You can edit any tab online and save it as your Personal.

You can edit, replace or remove any tab part or add personal notes – all changes will be seen only by you.

Personal tabs can be accessed anytime from any device, even offline.
Learn more »
comments
print report bad tab
2 comments total.
0 reply
SveaAgnes 25 May 19, 2016 02:23 PM

nice tabs and chords

0 reply
christian.seltmann 10 Sep 11, 2017 03:01 AM

Great thank you

guest
You may want to rate the tab now too:
select rating
Wanna post a correction for this tab? Suggest correction