Oops, an error
Loading. Please wait.

Had To Cry Today tab

version 3
version 3

Whole song

Interactive

31,514 views 102 this week
1 commentread comment
1 2 3 4 5
x 6
add to favorites
×
Save as Personal and add changes to this tab that will be seen only by you. Learn more ›
×
You can save this tab as Personal to edit and correct it or add notes. All changes will be seen only by you. Learn more »
launch autoscroll
font size
0
reset
how to read this tab
guitar tuner
edit
Autoscroll
slow
fast
+/-
esc
set tempo
stop
Author
Unregistered
Blind Faith - Had to Cry Today.

Chords diagram:

E7:   xx3545  
C#m6: xx3435  
Am:   6xx3323  
C#m:  x46654 
С#m*: 9x11999 
Am7:  5x7654
C8:   x1098x  
A5:   x7654
C7:   335533 
C7*:  353533


[Riff]

e|----------------------------------------------------|
B|---------------------------------------------------*|
G|--------3-----------------------------------3-5-3---|
D|-3-h5-5---5-h3-0---------0------------------3-5-3---|
A|------------------1-h3-3---3-h1-----1-------1-3-1--*|
E|--------------------------------3-------3-----------|(x4)


C7         
It's already written that today will be one to remember (riff)
C7
The feeling's the same as being outside of the law 

(riff mais finissant ainsi)

e|--------|-------------------4-------------3--5--------|
B|--------|----9----9----9----5-------------5--5--------|
G|--3--4--|-----9----9----9---6------4-6-4--5--6--------|
D|--3--4--|------9----8----7--6--4-6--------5--7--------|
A|--1--2--|---7----7----7-----4-------------3--7--------|
E|--------|------------------------------------5--------|
           Had to cry today

Well, I saw your sign and I missed you there


[Riff] (x2)

C7
I'm taking the chance to see the wind in your eyes while I listen
C7
You say you can't reach me but you want every word to be free
E7     C#m6  Am6  C#m
Had to cry today
Amaj7   E7       C#m6       Am6            C#m
Well, I saw your sign and I missed you there


[Riff Variations]

e|---------------|-----------------|1-3-1|
B|---------------|-----------------|1-3-1|
G|---------3-----|-----------------|3-5-3| 
D|---3h5-5--5-3--|-----------------|3-5-3|
A|--------------5|3-3-3-5-3-1---1--|1-3-1|
E|---------------|------------3---3|1-3-1|(repeat)


e|------------------------------------------------------------|
B|-----------11-----------------------------------------------|
G|--10h12-12----12h10-----------------------------------------|
D|--------------------12---8h10-10--12-10h8----8b----8-10-8---|
A|------------------------------------------10---10--8-10-8---|
E|------------------------------------------------------------|



************************************

| *  part repeating
| h  Hammer-on
| b  Bend

************************************

            
            
Suggest correction
Creating personal tab
Creating personal tab
You can edit any tab online and save it as your Personal.

You can edit, replace or remove any tab part or add personal notes – all changes will be seen only by you.

Personal tabs can be accessed anytime from any device, even offline.
Learn more »
comments
print report bad tab
1 comment total.
0 reply
amkaplan 10 Jun 12, 2011 07:41 PM

More accurate rendition than others.

guest
Wanna post a correction for this tab? Suggest correction