Oops, an error
Loading. Please wait.

The Age Of False Innocence bass

version 1
version 1

Whole song

Interactive

152 views 1 this week
no commentswrite comment
1 2 3 4 5
3 more votes to show rating
add to favorites
×
Save as Personal and add changes to this tab that will be seen only by you. Learn more ›
×
You can save this tab as Personal to edit and correct it or add notes. All changes will be seen only by you. Learn more »
launch autoscroll
font size
0
reset
guitar tuner
edit
Autoscroll
slow
fast
+/-
esc
set tempo
stop
#----------------------------------PLEASE NOTE---------------------------------#
#This file is the author's own work and represents their interpretation of the #
#song. You may only use this file for private study, scholarship, or research. #
#------------------------------------------------------------------------------#

THE AGE OF FALSE INNOCENCE (Bassline)
As recorded by Blind Guardian
(From the 2002 Album A NIGHT AT THE OPERA)


Transcribed by Fear Fex

 Words by Kürsch Music by Olbrich & Kürsch

 

Gtr I (E A D G) - 'Oliver Holzwarth'


 Intro
  Q=120
 4/4
  Gtr I
  W          H    H      W          Q.   E +Q   E E
|----------|-----------|----------|------------------|
|-2--------|------2----|-0--------|------------------|
|----------|-3---------|----------|-2----3-(3)--2-3--|
|----------|-----------|----------|------------------|


  W          H    H      W          Q.   E +Q   E E
|----------|-----------|----------|-----------------|
|----------|------2----|-0--------|-----------------|
|-0--------|-3---------|----------|-2----3-(3)--2-3-|
|----------|-----------|----------|-----------------|


 Verse
  W          H    H      W          Q.   E +Q   E E
|----------|-----------|----------|-----------------|
|----------|------2----|-0--------|-----------------|
|-0--------|-3---------|----------|-2----3-(3)--2-3-|
|----------|-----------|----------|-----------------|


  W          H    H      H    +Q.   E   Q.   E Q  Q
|----------|-----------|--------------|-4------0-----|
|----------|------2----|-0----(0)-----|--------------|
|-0--------|-3---------|------------0-|------2----3--|
|----------|-----------|--------------|--------------|


 Still Verse
  E E +E  E Q  E E   +H     +E  E E  E    +H      +E  E E E    E E Q  Q  E E
|---2-(2)---4------|-------------------|--------------------|----------------|
|----------------7-|-(7)----(7)--------|--------------------|----------------|
|-0-------0--------|-------------------|--------------0-----|--------------0-|
|--------------5---|------------7-8-10-|-(10)----(10)---7-8-|-10-8-7--5--3---|


  +E  E +E  E Q  E E   +H     +E  E E  E    +H      +E  E E E    E E Q  Q  E E
|-----2-(2)---4------|-------------------|--------------------|----------------|
|------------------7-|-(7)----(7)--------|--------------------|----------------|
|-(0)-------0--------|-------------------|--------------0-----|--------------0-|
|----------------5---|------------7-8-10-|-(10)----(10)---7-8-|-10-8-7--5--3---|


  +E  E E E Q  E E   +H     +E  E E  E    +H      +E  E E E    E E Q  Q  E E
|-----2-----4------|-------------------|--------------------|----------------|
|-----5----------7-|-(7)----(7)--------|--------------------|----------------|
|-(0)-----0--------|-------------------|--------------0-----|--------------0-|
|--------------5---|------------7-8-10-|-(10)----(10)---7-8-|-10-8-7--5--3---|


  +E  E +E  E Q  E E   +H     +E  E E  E    +H      +E  E E E    E E Q  Q  E E
|-----2-(2)---4------|-------------------|--------------------|----------------|
|------------------7-|-(7)----(7)--------|--------------------|----------------|
|-(0)-------0--------|-------------------|--------------0-----|--------------0-|
|----------------5---|------------7-8-10-|-(10)----(10)---7-8-|-10-8-7--5--3---|


 Still Verse
  S S S S E S S S S S S S S S S   S S S S E S S S S S S S S S S
|-------------------------------|--------------------------------|
|-------------------------------|--------------------------------|
|-0-0-0-----0-0-0-0-0---5-3-2-3-|-0-0-0-----0-0-0-0-0---5-3-2-3--|
|-------------------------------|--------------------------------|


  S S S S E S S S S S S S S S S   S S S S E S S S S S S S S S S
|-------------------------------|--------------------------------|
|-------------------------------|--------------------------------|
|-0-0-0-----0-0-0-0-0---5-3-2-3-|-0-0-0-----0-0-0-0-0---5-3-2-3--|
|-------------------------------|--------------------------------|


 Still Verse
  S S S S S S S S S S S S S S S S   S S S S S S S S S S S S S S S S
|---------------------------------|---------------------------------|
|---------------------------------|---------------------------------|
|-0-0-0-0-0-0-0-0-0-0-0-0-0-0-0-0-|-5-5-5-5-5-5-5-5-----------------|
|---------------------------------|-----------------3-3-3-3-3-3-3-3-|


  S S S S S S S S S S S S S S S S   S S S S S S S S S S S S S S S S
|---------------------------------|---------------------------------|
|---------------------------------|---------------------------------|
|-0-0-0-0-0-0-0-0-0-0-0-0-0-0-0-0-|-5-5-5-5-5-5-5-5-3-3-3-3-3-3-3-3-|
|---------------------------------|---------------------------------|


  S S S S S S S S S S S S S S S S   S S S S S S S S S S S S S S S S
|---------------------------------|---------------------------------|
|---------------------------------|---------------------------------|
|-0-0-0-0-0-0-0-0-0-0-0-0-0-0-0-0-|-5-5-5-5-5-5-5-5-----------------|
|---------------------------------|-----------------3-3-3-3-3-3-3-3-|


  S S S S S S S S S S S S S S S S   S S S S S S S S S S S S S S S S
|---------------------------------|---------------------------------|
|---------------------------------|---------------------------------|
|-0-0-0-0-0-0-0-0-0-0-0-0-0-0-0-0-|-5-5-5-5-5-5-5-5-3-3-3-3-3-3-3-3-|
|---------------------------------|---------------------------------|


 Still Verse
  S S S S E S S S S S S S S S S   S S S S E S S S S S S S S S S
|-------------------------------|--------------------------------|
|-------------------------------|--------------------------------|
|-0-0-0-----0-0-0-0-0---5-3-2-3-|-0-0-0-----0-0-0-0-0---5-3-2-3--|
|-------------------------------|--------------------------------|


  S S S S E S S S S S S S S S S   S S S S E S S S S S S S S S S
|-------------------------------|--------------------------------|
|-------------------------------|--------------------------------|
|-0-0-0-----0-0-0-0-0---5-3-2-3-|-0-0-0-----0-0-0-0-0---5-3-2-3--|
|-------------------------------|--------------------------------|


 Chorus
  Q.   S S Q  E E   E S S S S S S S S S S S S S S
|-----------------|-------------------------------|
|-----------------|-------------------------------|
|-----------------|-3-3-3-3-3-3-3-2-2-2-2-2-2-2-2-|
|-1----1-1-1--1-1-|-------------------------------|


  S S S S S S S S S S S S S S S S   S S S S S S S S S S S S S S S S
|---------------------------------|---------------------------------|
|---------------------------------|---------------------------------|
|-0-0-0-0-0-0-0-0-0-0-0-0-3-3-2-2-|-------------------------2-2-3-3-|
|---------------------------------|-1-1-1-1-1-1-1-1-1-1-1-1---------|


  S S S S S S S S S S S S S S S S   S S S S S S S S S S S S S S S S
|---------------------------------|---------------------------------|
|---------------------------------|---------------------------------|
|-0-0-0-0-0-0-0-0-0-0-0-0-3-3-2-2-|---------------------2-2-3-3-2-2-|
|---------------------------------|-1-1-1-1-1-1-1-1-1-1-------------|


  S S S S S S S S S S S S S S S S   S S S S S S S S S S S S S S S S
|---------------------------------|---------------------------------|
|---------------------------------|---------------------------------|
|-0-0-0-0-0-0-0-0-0-0-0-0-3-3-2-2-|-------------------------2-2-3-3-|
|---------------------------------|-1-1-1-1-1-1-1-1-1-1-1-1---------|


  S S S S S S S S S S S S S S S S   S S S S S S S S S S S S S S S S
|---------------------------------|---------------------------------|
|---------------------------------|---------------------------------|
|-0-0-0-0-0-0-0-0-0-0-0-0-3-3-2-2-|---------------------2-2-3-3-2-2-|
|---------------------------------|-1-1-1-1-1-1-1-1-1-1-------------|


                                      Verse
  Q.   S S E E E E   +E  E +Q   H      E E +E  E Q  E E   +H.      E  E
|------------------|-----0-(0)-------|---2-(2)---4------|----------------|
|------------------|------------3----|-2--------------7-|-(7)------------|
|------------------|-----------------|---------0--------|----------------|
|-3----3-3-3-3-3-1-|-(1)-------------|--------------5---|----------8-10--|


   +H.      E E   +E  E Q  Q  Q    E E +E  E Q  E E   +H.      E  E
|---------------|----------------|---2-(2)---4------|---------------|
|---------------|----------------|----------------7-|-(7)-----------|
|---------------|----------------|-0-------0--------|---------------|
|-(10)------7-8-|-(8)-8-7--5--3--|--------------5---|----------8-10-|


   +H.      E E   +E  E Q  Q  Q    S S S S E S S S S S S Q
|---------------|----------------|---------------------------|
|---------------|----------------|---------------------------|
|---------------|----------------|-0-0-0-----0-0-0-0-0-------|
|-(10)------7-8-|-(8)-8-7--5--3--|---------------------------|


  S S S S E S S S S S S Q    S S S S E S S S S S S Q
|--------------------------|---------------------------|
|--------------------------|---------------------------|
|-0-0-0-----0-0-0-0-0------|-0-0-0-----0-0-0-0-0-------|
|--------------------------|---------------------------|


  S S S S E S S S S E Q    S S S S S S S S S S S S S S S S
|---------------------2--|---------------------------------|
|------------------------|---------------------------------|
|-0-0-0-----0-0-0-0-0----|-0-0-0-0-0-0-0-0-0-0-0-0-0-0-0-0-|
|------------------------|---------------------------------|


  S S S S S S S S S S S S S S S S   S S S S S S S S S S S S S S S S
|---------------------------------|---------------------------------|
|---------------------------------|---------------------------------|
|-0-0-0-0-0-0-0-0-0-0-0-0-0-0-0-0-|-0-0-0-0-0-0-0-0-0-0-0-0-0-0-0-0-|
|---------------------------------|---------------------------------|


                                   Still Verse
  S S S S S S S S S S S S S S S S   S S S S S S S S S S S S E E
|---------------------------------|------------------------------|
|---------------------------------|------------------------------|
|-0-0-0-0-0-0-0-0-0-0-0-0-0-0-0-0-|-0-0-0-0-0---0-0---0-0---1----|
|---------------------------------|---------------------------3--|


  S S S S S S S S S S S S E E   S S S S S S S S S S S S E E
|-----------------------------|-----------------------------|
|-----------------------------|-----------------------------|
|-0-0---0-0---0-0---0-0---1---|-0-0---0-0---0-0---0-0---1---|
|---------------------------3-|---------------------------3-|


  S S S S S S S S S S S S E E   S S S S S S S S S S S S E E
|-----------------------------|-----------------------------|
|-----------------------------|-----------------------------|
|-0-0---0-0---0-0-0-0-0---1---|-0-0---0-0---0-0---0-0---1---|
|---------------------------3-|---------------------------3-|


  S S S S S S S S S S S S E E   S S S S S S S S S S S S E E
|-----------------------------|-----------------------------|
|-----------------------------|-----------------------------|
|-0-0---0-0---0-0-0-0-0---1---|-0-0---0-0---0-0---0-0---1---|
|---------------------------3-|---------------------------3-|


                               Still Verse
  S S S S S S S S S S S S E E   S S S S S S S S S S S S S S S S
|-----------------------------|----------------------------------|
|-----------------------------|----------------------------------|
|-0-0---0-0---0-0-0-0-0---1---|-5-5-5-5-5-5-5-5-5-5-5-5-5-5-5-5--|
|---------------------------3-|----------------------------------|


  S S S S S S S S S S S S S S S S   S S S S S S S S S S S S S S S S
|---------------------------------|---------------------------------|
|---------------------------------|---------------------------------|
|-3-3-3-3-3-3-3-3-3-3-3-3-3-3-3-3-|-5-5-5-5-5-5-5-5-5-5-5-5-5-5-5-5-|
|---------------------------------|---------------------------------|


  S S S S S S S S S S S S S S S S
|---------------------------------|
|---------------------------------|
|---------------------------------|
|-6-6-6-6-6-6-8-8-8-8-8-8-8-8-8-8-|


   S  S  S  S  S  S  S  S  S  S  S  S  S  S  S  S
|-------------------------------------------------|
|-------------------------------------------------|
|-------------------------------------------------|
|-10-10-10-10-10-10-10-10-10-10-10-10-10-10-10-10-|


  S S S S S S S S S S S S S S S S
|---------------------------------|
|---------------------------------|
|---------------------------------|
|-8-8-8-8-8-8-8-8-8-8-8-8-8-8-8-8-|


   S  S  S  S  S  S  S  S  S  S  S  S  S  S  S  S
|-------------------------------------------------|
|-------------------------------------------------|
|-------------------------------------------------|
|-10-10-10-10-10-10-10-10-10-10-10-10-10-10-10-10-|


  S S S S S S S S S S S S S S S S   S S S S S S S S S S S S S S S S
|---------------------------------|---------------------------------|
|---------------------------------|---------------------------------|
|---------------------------------|---------------------------------|
|-6-6-6-6-6-6-8-8-8-8-8-8-8-8-8-8-|-6-6-6-6-6-6-6-6-6-6-6-6-6-6-6-6-|


                                   Chorus
  S S S S S S S S S S S S S S S S   S S S S S S S S S S S S S S S S
|---------------------------------|---------------------------------|
|---------------------------------|---------------------------------|
|---------------------------------|-------------------------3-3-2-2-|
|-6-6-6-6-6-6-6-6-6-6-6-6-6-6-6-6-|-5-5-5-5-5-5-5-5-5-5-5-5---------|


  S S S S S S S S S S S S S S S S   S S S S S S S S S S S S S S S S
|---------------------------------|---------------------------------|
|---------------------------------|---------------------------------|
|-------------------------2-2-3-3-|-0-0-0-0-0-0-0-0-0-0-0-0-3-3-2-2-|
|-1-1-1-1-1-1-1-1-1-1-1-1---------|---------------------------------|


  S S S S S S S S S S S S S S S S   S S S S S S S S S S S S S S S S
|---------------------------------|---------------------------------|
|---------------------------------|---------------------------------|
|---------------------2-2-3-3-2-2-|-0-0-0-0-0-0-0-0-0-0-0-0-3-3-2-2-|
|-1-1-1-1-1-1-1-1-1-1-------------|---------------------------------|


  S S S S S S S S S S S S S S S S   S S S S S S S S S S S S S S S S
|---------------------------------|---------------------------------|
|---------------------------------|---------------------------------|
|-------------------------2-2-3-3-|-0-0-0-0-0-0-0-0-0-0-0-0-3-3-2-2-|
|-1-1-1-1-1-1-1-1-1-1-1-1---------|---------------------------------|


                                   Guitar Solo
  S S S S S S S S S S S S S S S S   E. S S E. +H       E. S S E. +H
|---------------------------------|------------------|------------------|
|---------------------------------|------------------|------------------|
|---------------------------------|-3--0-3-5--(5)----|-3--0-3-5--(5)----|
|-1-1-1-1-1-1-1-1-1-1-1-1-1-1-1-1-|------------------|------------------|


  E. S S E. +H       E. S S E. +H       S S S S S S S S S S S S S S S S
|------------------|------------------|----------------------------------|
|------------------|------------------|----------------------------------|
|-3--0-3-5--(5)----|-3--0-3-5--(5)----|-5-5-5-5-5-5----------------------|
|------------------|------------------|-------------6-6-6-6-6-6-6-6-3-3--|


  S S S S S S S S S S S S S S S S   S S S S S S S S S S S S S S S S
|---------------------------------|---------------------------------|
|---------------------------------|---------------------------------|
|-------------1-1-1-1-1-1-3-3-3-3-|-5-5-5-5-5-5---------------------|
|-3-3-3-3-3-3---------------------|-------------6-6-6-6-6-6-6-6-8-8-|


  S S S S S S S S S S S S S S S S   S S S S S S S S S S S S S S S S
|---------------------------------|---------------------------------|
|---------------------------------|---------------------------------|
|---------------------------------|-5-5-5-5-5-5---------------------|
|-8-8-8-8-8-8-3-3-3-3-3-3-3-3-3-3-|-------------6-6-6-6-6-6-6-6-3-3-|


  S S S S S S S S S S S S S S S S   S S S S S S S S S S S S S S S S
|---------------------------------|---------------------------------|
|---------------------------------|---------------------------------|
|-------------1-1-1-1-1-1-3-3-3-3-|-5-5-5-5-5-5---------------------|
|-3-3-3-3-3-3---------------------|-------------6-6-6-6-6-6-6-6-8-8-|


  S S S S S S S S S S S S S S S S   S S S S S S S S S S S S S S S S
|---------------------------------|---------------------------------|
|---------------------------------|---------------------------------|
|---------------------------------|-0-0-0-0-0-0-0-0-0-0-0-0-0-0-0-0-|
|-8-8-8-8-8-8-3-3-3-3-3-3-3-3-3-3-|---------------------------------|


  S S S S S S S S S S S S S S S S   S S S S S S S S S S S S S S S S
|---------------------------------|---------------------------------|
|---------------------------------|---------------------------------|
|-5-5-5-5-5-5-5-5-----------------|-0-0-0-0-0-0-0-0-0-0-0-0-0-0-0-0-|
|-----------------3-3-3-3-3-3-3-3-|---------------------------------|


  S S S S S S S S S S S S S S S S   S S S S S S S S S S S S S S S S
|---------------------------------|---------------------------------|
|---------------------------------|---------------------------------|
|-5-5-5-5-5-5-5-5-----------------|-0-0-0-0-0-0-0-0-0-0-0-0-0-0-0-0-|
|-----------------3-3-3-3-3-3-3-3-|---------------------------------|


  S S S S S S S S S S S S S S S S   S S S S S S S S S S S S S S S S
|---------------------------------|---------------------------------|
|-3-3-3-3-3-3-3-3-----------------|---------------------------------|
|-----------------3-3-3-3-3-3-3-3-|-0-0-0-0-0-0-0-0-0-0-0-0-0-0-0-0-|
|---------------------------------|---------------------------------|


  S S S S S S S S S S S S S S S S   S S S S S S S S S S S S S S S S
|---------------------------------|---------------------------------|
|-3-3-3-3-3-3-3-3-----------------|---------------------------------|
|-----------------3-3-3-3-3-3-3-3-|-0-0-0-0-0-0-0-0-0-0-0-0-0-0-0-0-|
|---------------------------------|---------------------------------|


  S S S S S S S S S S S S S S S S   S S S S S S S S S S S S S S S S
|---------------------------------|---------------------------------|
|-3-3-3-3-3-3-3-3-----------------|---------------------------------|
|-----------------3-3-3-3-3-3-3-3-|-0-0-0-0-0-0-0-0-0-0-0-0-0-0-0-0-|
|---------------------------------|---------------------------------|


  S S S S S S S S S S S S S S S S   S S S S S S S S S S S S S S S S
|---------------------------------|---------------------------------|
|-3-3-3-3-3-3-3-3-----------------|---------------------------------|
|-----------------3-3-3-3-3-3-3-3-|-0-0-0-0-0-0-0-0-0-0-0-0-0-0-0-0-|
|---------------------------------|---------------------------------|


 Verse
  S S S S S S S S S S S S S S S S   S S S S S S S S S S S S S S S S
|---------------------------------|---------------------------------|
|---------------------------------|---------------------------------|
|-5-5-5-5-5-5-5-5-----------------|-0-0-0-0-0-0-0-0-0-0-0-0-0-0-0-0-|
|-----------------3-3-3-3-3-3-3-3-|---------------------------------|


  S S S S S S S S S S S S S S S S   S S S S S S S S S S S S S S S S
|---------------------------------|---------------------------------|
|---------------------------------|---------------------------------|
|-5-5-5-5-5-5-5-5-3-3-3-3-3-3-3-3-|-0-0-0-0-0-0-0-0-0-0-0-0-0-0-0-0-|
|---------------------------------|---------------------------------|


  S S S S S S S S S S S S S S S S   S S S S S S S S S S S S S S S S
|---------------------------------|---------------------------------|
|---------------------------------|---------------------------------|
|-5-5-5-5-5-5-5-5-----------------|-0-0-0-0-0-0-0-0-0-0-0-0-0-0-0-0-|
|-----------------3-3-3-3-3-3-3-3-|---------------------------------|


  S S S S S S S S S S S S S S S S
|---------------------------------|
|---------------------------------|
|-5-5-5-5-5-5-5-5-3-3-3-3-3-3-3-3-|
|---------------------------------|


 Still Verse
  Q  S S S S E. S E E   E. S S E S E E S E S
|---------------------|-----------------------|
|---------------------|-----------------------|
|-5--5-5-5-5-5----5-5-|-3--0-3-3-3-3-3-3-3-3--|
|---------------5-----|-----------------------|


  Q  S S S S E. S E E   E. S S S S S E E S E S    Q   S  S  S  S  E. S  E  E
|---------------------|------------------------|-----------------------------|
|---------------------|------------------------|-----------------------------|
|-5--5-5-5-5-5----5-5-|------------------------|---------------------0-------|
|---------------5-----|-6--5-6-6-8-8-8-8-8-8-8-|-10--10-10-10-10-10----10-10-|


  E. S S E S E E S E S   Q  S S S S E. S E E   E. S S S S S E E S E S
|----------------------|---------------------|------------------------|
|----------------------|---------------------|------------------------|
|------3-3-3-3-3-3-3-3-|-5--5-5-5-5-5----5-5-|------------------------|
|-8--5-----------------|---------------5-----|-6--5-6-6-8-8-8-8-8-8-8-|


 Chorus
  S S S S S S S S S S S S S S S S   S S S S S S S S S S S S S S S S
|---------------------------------|---------------------------------|
|---------------------------------|---------------------------------|
|-------------------------3-3-2-2-|-------------------------2-2-3-3-|
|-5-5-5-5-5-5-5-5-5-5-5-5---------|-1-1-1-1-1-1-1-1-1-1-1-1---------|


  S S S S S S S S S S S S S S S S   S S S S S S S S S S S S S S S S
|---------------------------------|---------------------------------|
|---------------------------------|---------------------------------|
|-0-0-0-0-0-0-0-0-0-0-0-0-3-3-2-2-|---------------------2-2-3-3-2-2-|
|---------------------------------|-1-1-1-1-1-1-1-1-1-1-------------|


  S S S S S S S S S S S S S S S S   S S S S S S S S S S S S S S S S
|---------------------------------|---------------------------------|
|---------------------------------|---------------------------------|
|-0-0-0-0-0-0-0-0-0-0-0-0-3-3-2-2-|-------------------------2-2-3-3-|
|---------------------------------|-1-1-1-1-1-1-1-1-1-1-1-1---------|


  S S S S S S S S S S S S S S S S   S S S S S S S S S S S S S S S S
|---------------------------------|---------------------------------|
|---------------------------------|---------------------------------|
|-0-0-0-0-0-0-0-0-0-0-0-0-3-3-2-2-|---------------------2-2-3-3-2-2-|
|---------------------------------|-1-1-1-1-1-1-1-1-1-1-------------|


  S S S S S S S S S S S S S S S S   S S S S S S S S S S S S S S S S
|---------------------------------|---------------------------------|
|---------------------------------|---------------------------------|
|-0-0-0-0-0-0-0-0-0-0-0-0-3-3-2-2-|-------------------------2-2-3-3-|
|---------------------------------|-1-1-1-1-1-1-1-1-1-1-1-1---------|


  S S S S S S S S S S S S S S S S   S S S S S S S S S S S S S S S S
|---------------------------------|---------------------------------|
|---------------------------------|---------------------------------|
|-0-0-0-0-0-0-0-0-0-0-0-0-3-3-2-2-|---------------------2-2-3-3-2-2-|
|---------------------------------|-1-1-1-1-1-1-1-1-1-1-------------|


  S S S S S S S S S S S S S S S S   S S S S S S S S S S S S S S S S
|---------------------------------|---------------------------------|
|---------------------------------|---------------------------------|
|-0-0-0-0-0-0-0-0-0-0-0-0-3-3-2-2-|-------------------------2-2-3-3-|
|---------------------------------|-1-1-1-1-1-1-1-1-1-1-1-1---------|


  S S S S S S S S S S S S S S S S   S S S S S S S S S S S S S S S S
|---------------------------------|---------------------------------|
|---------------------------------|---------------------------------|
|-0-0-0-0-0-0-0-0-0-0-0-0-3-3-2-2-|---------------------2-2-3-3-2-2-|
|---------------------------------|-1-1-1-1-1-1-1-1-1-1-------------|


  Q.   S S E E E E   +E  E +Q   S S S S S S S S
|------------------|-----0-(0)------------------|
|------------------|------------3-3-3-3-3-3-3-3-|
|------------------|----------------------------|
|-3----3-3-3-3-3-1-|-(1)------------------------|


  E E +E  E Q  E E   +H.      E  E
|---2-(2)---4------|----------------|
|----------------7-|-(7)------------|
|-0-------0--------|----------------|
|--------------5---|----------8-10--|


                                  Outro
   +H.      E E   +E  E Q  Q  Q    E E +E  E Q  E E   +H.      E  E
|---------------|----------------|---2-(2)---4------|---------------|
|---------------|----------------|----------------7-|-(7)-----------|
|---------------|----------------|-0-------0--------|---------------|
|-(10)------7-8-|-(8)-8-7--5--3--|--------------5---|----------8-10-|


   +H.      E E   +E  E E S S S S S S S S S S
|---------------|-----------------------------|
|---------------|-----------------------------|
|---------------|-----------------------------|
|-(10)------7-8-|-(8)-8-7-5---5-5-5-5-3-3-3-3-|


  E E +E  E Q  E E   +H.      E  E
|---2-(2)---4------|----------------|
|----------------7-|-(7)------------|
|-0-------0--------|----------------|
|--------------5---|----------8-10--|


                                                               H.=H
   +H.      E E   +E  E Q  Q  Q    E E +E  E Q  E E   +H.      E  E
|---------------|----------------|---2-(2)---4------|---------------|
|---------------|----------------|----------------7-|-(7)-----------|
|---------------|----------------|-0-------0--------|---------------|
|-(10)------7-8-|-(8)-8-7--5--3--|--------------5---|----------8-10-|


   +H.      E E   +E  E Q  Q  Q    W          +W
|---------------|----------------|----------|--------*|
|---------------|----------------|----------|--------*|
|---------------|----------------|-0--------|-(0)----*|
|-(10)------7-8-|-(8)-8-7--5--3--|----------|--------*|




--------------------------------------------------------------------------------


Duration Legend
---------------
W - whole; H - half; Q - quarter; E - 8th; S - 16th; T - 32nd; X - 64th; a - acciaccatura
+ - note tied to previous; . - note dotted; .. - note double dotted
Uncapitalized letters represent notes that are staccato (1/2 duration)
Irregular groupings are notated above the duration line
Duration letters will always appear directly above the note/fret number it represents the
duration for.  Duration letters with no fret number below them represent rests.  Multi-
bar rests are notated in the form Wxn, where n is the number of bars to rest for.  Low
melody durations appear below the staff

Tablature Legend
----------------
 h   - hammer-on
 p   - pull-off
 b   - bend
 pb  - pre-bend
 r   - bend release (if no number after the r, then release immediately)
 /\  - slide into or out of (from/to "nowhere")
 s   - legato slide
 S   - shift slide
 - natural harmonic
[n]  - artificial harmonic
n(n) - tapped harmonic
 ~   - vibrato
 tr  - trill
 T   - tap
 TP  - trem. picking
 PM  - palm muting
\n/  - tremolo bar dip; n = amount to dip
 \n  - tremolo bar down
 n/  - tremolo bar up
/n\  - tremolo bar inverted dip
 =   - hold bend; also acts as connecting device for hammers/pulls
 <> - volume swell (louder/softer)
 x   - on rhythm slash represents muted slash
 o   - on rhythm slash represents single note slash

Misc Legend
-----------
 |  - bar
||  - double bar
||o - repeat start
o|| - repeat end
*|  - double bar (ending)
 :  - bar (freetime)
 $  - Segno
 &  - Coda
Tempo markers -  = BPM(8/16=s8/s16), where s8 = swing 8ths, s16 = swing 16ths


            
            
Suggest correction
Creating personal tab
Creating personal tab
You can edit any tab online and save it as your Personal.

You can edit, replace or remove any tab part or add personal notes – all changes will be seen only by you.

Personal tabs can be accessed anytime from any device, even offline.
Learn more »
Give kudos to tab author, rate the tab!
1 2 3 4 5
comments
print report bad tab
guest
You may want to rate the tab now too:
select rating
Wanna post a correction for this tab? Suggest correction