Oops, an error
Loading. Please wait.

The Curse Of Feanor bass

version 2
version 2

Whole song

Interactive

160 views 1 this week
no commentswrite comment
1 2 3 4 5
3 more votes to show rating
add to favorites
×
Save as Personal and add changes to this tab that will be seen only by you. Learn more ›
×
You can save this tab as Personal to edit and correct it or add notes. All changes will be seen only by you. Learn more »
launch autoscroll
font size
0
reset
guitar tuner
edit
Autoscroll
slow
fast
+/-
esc
set tempo
stop
blind guardian
 
F||--------------------------|--------------------------|
C||--------------------------|--------------------------|
G||--1--1--1--1--1--1--1--1--|--2--2--2--2--------------|
D||--------------------------|--------------4--4--4--4--|

|-----------------------||----------------------------||
|*---------------------*||*--------------------------*||
|*--1------------L--1--*||*--1-----1-----1-----1-----*||x4
|-----------------------||----------------------------||
                              4x    
------------------------------||---------------------------|
*----------------------------*||*--1--1--1--1--1--1--------|
*--1-1--1-1--1-1--1-1--2-----*||*--------------------2--1--|
--------------------------4---||---------------------------|
    
-------------------------|--------------------------|----------------------|
-1--1--1--1--1--1--------|--1--1--1--1--1--1--------|--1--------------4----|
-------------------2--4--|--------------------2--1--|------4---2-----------|
-------------------------|--------------------------|----------------------|

--------------------------|--------------------------|
--1--1--1--1--1--1--------|--1--1--1--1--1--1--------|
--------------------2--1--|--------------------2--4--|
--------------------------|--------------------------|
 
--------------------------|-----------------------||-----------------------|
--1--1--1--1--1--1--------|----------------------*||-----------------------|
--------------------2--1--|----------2------1----*||--1----1----1----------|
--------------------------|--4---2----------------||-----------------2--2--|
 
----------------------|-----------------------|----------------------|
----------------------|-----------------------|------------1---------|
------------4---------|--4----4----4----------|----------------------|
--L----2---------2----|-----------------2--4--|--L----4---------4----|
 
-----------------------|----------------------|-----------------------|
-----------------------|----------------------|-----------------------|
--1----1----1----------|------------4---------|-----------------------|
-----------------2--2--|--L----2---------2----|--1----1----1----2--1--|
   
----------------------|-----------------------|----------------------|
----------------------|-----------------------|----------------------|
----------------------|--1----1----1----------|------------4---------|
--L----1----1----1----|-----------------2--2--|--L----2---------2----|

-----------------------|----------------------|-----------------------|
-----------------------|------------1---------|-----------------------|
--4----4----4----------|----------------------|--1----1----1----------|
-----------------2--4--|--L----4---------4----|-----------------2--2--|
  
----------------------|----------------------|--------------------------|
----------------------|----------------------|--------------------------|
------------4---------|----------------------|--------------------------|
--L----2---------2----|--1----1----1----1----|--1--1--1--1--1--1--1--1--|
 
-----------------------|-----------------------|-----------------------|
--1----1----1----3--4--|--L----4----4----4-----|-----------------------|
-----------------------|--------------------4--|--1----1----1----------|
-----------------------|-----------------------|-----------------4--4--|

----------------------|-----------------------|-----------------------|
------------1---------|--1----1----1----3--4--|--L----4----4----------|
----------------------|-----------------------|--------------------3--|
--L----4-----------4--|-----------------------|-----------------6-----|
  
-----------------------|----------------------|----------------------|
-----------------------|----------------------|----------------------|
--4------3--4----1--3--|----------------------|----------------------|
-----------------------|--4----4----4----4----|--2----2----2----2----|
  
-----------------------|-----------------------|----------------------|
-----------------------|------------3----------|------------1---------|
------------4----------|--1----1---------------|----------------------|
--2----2---------2--4--|-----------------2--4--|--L----4-----------4--|
  
----------------------|----------------------|----------------------|
--1----1----1----3----|--4----4----4----4----|----------------------|
----------------------|----------------------|--4----4----4----4----|
----------------------|----------------------|----------------------|
 
---------------------||---------------------------|------------------------|
---------------------||*--------------------------|--------3--2--1---------|
---------------------||*--1--3--3--3--1--3--3--3--|--3--3-------------1----|
--4---4----4----4----||---------------------------|------------------------|

    
--------------------------|-------------------------||
--------------------------|--------3--2--1----1----*||
--1--3--3--3--1--3--3--3--|--3--3------------------*||
--------------------------|-------------------------||


---------------------------|---------------------------||
*--0--0--0--0--0--0--0--0--|-----------------3--3-----*||
*--------------------------|--2--2--2--3--3--------3--*||x4
---------------------------|---------------------------||

--------------------------|--------------------------|
--1--1--1--1--1--1--------|--1--1--1--1--1--1--------|
--------------------2--1--|--------------------2--4--|
--------------------------|--------------------------|
 
-------------------------|----------------------|--------------------------|
-1--1--1--1--1--1--------|--1--------------4----|--1--1--1--1--1--1--------|
-------------------2--1--|------4---2-----------|--------------------2--1--|
-------------------------|----------------------|--------------------------|

-------------------------|--------------------------|----------------------|
-1--1--1--1--1--1--------|--1--1--1--1--1--1--------|----------------------|
-------------------2--4--|--------------------2--1--|----------2------1----|
-------------------------|--------------------------|--4---2---------------|
 
-----------------------|-----------------------|-----------------------|
--1----1----1----3--4--|--L----4----4----4-----|-----------------------|
-----------------------|--------------------4--|--1----1----1----------|
-----------------------|-----------------------|-----------------4--4--|

----------------------|----------------------|----------------------|
------------1---------|--1----1----1----3----|--4----4----4----4----|
----------------------|----------------------|----------------------|
--L----4-----------4--|----------------------|----------------------|
   
----------------------|----------------------|-----------------------|
----------------------|----------------------|-----------------------|
--4----4----4----4----|----------------------|-----------------------|
----------------------|--4----4----4----4----|--2----2----2----2--2--|

-----------------------|-----------------------|----------------------|
-----------------------|------------3----------|------------1---------|
------------4----------|--1----1---------------|----------------------|
--L----2---------2--4--|-----------------2--4--|--L----4-----------4--|
   
-----------------------|----------------------|----------------------|
--1----1----1----3--4--|--L----4----4----4----|----------------------|
-----------------------|----------------------|--4----4----4----4----|
-----------------------|----------------------|----------------------|
      
----------------------||------------------------|------------------------||
----------------------||*-----------------------|-----------------------*||
----------------------||*--1--2--1--------------|--1--2--1-------4------*||
--4----4----4----4----||------------------------|------------------------||

-------------------|---------------------|------------------------------|
-------------------|---------------------|*--1-1--1-1--1-1--1-1--2-----*|
-------------------|---------------1S----|*-------------------------4--*|x8
--4----------------|--L------------------|------------------------------|
                              8x    
------------------------------||--------------------------|
*--3-3--3-3--3-3--3-3--4--1--*||--------------------------|
*----------------------------*||--3--3--3--3--3--3--3--3--|
------------------------------||--------------------------|
               
--------------------------|---------------------|-------------------|
--------------3--3--------|---------------------|-------------------|
--3--4--4--4--------1--1--|--3------------------|-------------------|
--------------------------|---------------------|-------------------|
 
--------------------------|--------------1--1--------|---------------------|
--------------------------|--3--3--3--3--------------|---------------------|
--3--3--3--3--3--3--3--3--|--------------------4--4--|--3------------------|
--------------------------|--------------------------|---------------------|

-------------------|--------------------------|--------------------------|
-------------------|--1--1--1--1--1--1--------|--1--1--1--1--1--1--------|
-------------------|--------------------2--1--|--------------------2--4--|
-------------------|--------------------------|--------------------------|
 
-------------------------|----------------------|--------------------------|
-1--1--1--1--1--1--------|--1--------------4----|--1--1--1--1--1--1--------|
-------------------2--1--|------4---2-----------|--------------------2--1--|
-------------------------|----------------------|--------------------------|

-------------------------|--------------------------|----------------------|
-1--1--1--1--1--1--------|--1--1--1--1--1--1--------|----------------------|
-------------------2--4--|--------------------2--1--|----------2------1----|
-------------------------|--------------------------|--4---2---------------|

-----------------------|-----------------------|-----------------------|
--1----1----1----3--4--|--L----4----4----4-----|-----------------------|
-----------------------|--------------------4--|--1----1----1----------|
-----------------------|-----------------------|-----------------4--4--|
   
----------------------|----------------------|----------------------|
------------1---------|--1----1----1----3----|--4----4----4----4----|
----------------------|----------------------|----------------------|
--L----4-----------4--|----------------------|----------------------|

----------------------|----------------------|-----------------------|
----------------------|----------------------|-----------------------|
--4----4----4----4----|----------------------|-----------------------|
----------------------|--4----4----4----4----|--2----2----2----2--2--|

-----------------------|-----------------------|----------------------|
-----------------------|------------3----------|------------1---------|
------------4----------|--1----1---------------|----------------------|
--L----2---------2--4--|-----------------2--4--|--L----4-----------4--|

-----------------------|----------------------|----------------------|
--1----1----1----3--4--|--L----4----4----4----|----------------------|
-----------------------|----------------------|--4----4----4----4----|
-----------------------|----------------------|----------------------|

----------------------||-----------------------------||
----------------------||*---------------------------*||
----------------------||*--1-----1----2--2-2--------*|| x4
--4----4----4----4----||----------------------4--4---||
  
---------------------------|--------------------------|
*--------------------------|--3--4--3--3--3--4--3--3--|
*--1--1--1--1--4--4--4--4--|--------------------------|
---------------------------|--------------------------|
 
--------------------------|---------------------------||
--------------------------|--1--3--3--3--1--3--3--3--*||
--1--1--1--1--------------|--------------------------*||
--------------2--2--2--2--|---------------------------||
  
--------------------------|--------------------------|
--------------------------|--------------------------|
--3--3--3--3--3--3--3--3--|--1--1--1--1--1--1--1--1--|
--------------------------|--------------------------|

--------------------------|--------------------------|
--1--1--1--1--1--1--1--1--|--------------------------|
--------------------------|--------------1--1--1--1--|
--------------------------|--4--4--4--4--------------|
  
--------------------------|--------------------------|
--------------------------|--------------------------|
--2--2--2--2--2--2--2--2--|--------------------------|
--------------------------|--4--4--4--4--4--4--4--4--|

--------------------------|--------------------------|
--------------------------|--0--0--0--0--0--0--0--0--|
--4--4--4--4--4--4--4--4--|--------------------------|
--------------------------|--------------------------|
 
--------------------------|--------------------------|
--1--1--1--1--1--1--1--1--|--1--1--1--1--1--1--1--1--|
--------------------------|--------------------------|
--------------------------|--------------------------|
   
|---------------------------|------------------------|
|*--------------------------|--------3--2--1---------|
|*--1--3--3--3--1--3--3--3--|--3--3-------------1----|
|---------------------------|------------------------|
    
--------------------------|-------------------------||
--------------------------|--------3--2--1----1----*||
--1--3--3--3--1--3--3--3--|--3--3------------------*||
--------------------------|-------------------------||

---------------------------|---------------------------||
*--0--0--0--0--0--0--0--0--|-----------------3--3-----*||
*--------------------------|--2--2--2--3--3--------3--*||x4
---------------------------|---------------------------||
  
-----------------------|-----------------------|-----------------------|
--1----1----1----3--4--|--L----4----4----4-----|-----------------------|
-----------------------|--------------------4--|--1----1----1----------|
-----------------------|-----------------------|-----------------4--4--|

----------------------|-----------------------|-----------------------|
------------1---------|--1----1----1----3--4--|--L----4----4----------|
----------------------|-----------------------|--------------------3--|
--L----4-----------4--|-----------------------|-----------------6-----|
    
-----------------------|----------------------|----------------------|
-----------------------|----------------------|----------------------|
--4------3--4----1--3--|----------------------|----------------------|
-----------------------|--4----4----4----4----|--2----2----2----2----|
   
-----------------------|-----------------------|----------------------|
-----------------------|------------3----------|------------1---------|
------------4----------|--1----1---------------|----------------------|
--2----2---------2--4--|-----------------2--4--|--L----4-----------4--|
     
----------------------|----------------------|----------------------|
--1----1----1----3----|--4----4----4----4----|----------------------|
----------------------|----------------------|--4----4----4----4----|
----------------------|----------------------|----------------------|

----------------------||-----------------------------|
----------------------||*----------------------------|
----------------------||*--1-1--1-1--1-1--1----2--1--|
--4----4----4----4----||--------------------4--------|
                             4x          
-----------------------------||-------------------|-------------------|
----------------------------*||-------------------|-------------------|
--1-1--1-1--1-1--1----2--4--*||-------------------|-------------------|
-------------------4---------||--4----------------|--L----------------|
          
--------------------||
--------------------||
--1-----------------||
--------------------||

            
            
Suggest correction
Creating personal tab
Creating personal tab
You can edit any tab online and save it as your Personal.

You can edit, replace or remove any tab part or add personal notes – all changes will be seen only by you.

Personal tabs can be accessed anytime from any device, even offline.
Learn more »
Give kudos to tab author, rate the tab!
1 2 3 4 5
comments
print report bad tab
guest
Wanna post a correction for this tab? Suggest correction