Oops, an error
Loading. Please wait.

Skinned intro tab

version 1
version 1

Intro

Interactive

7,640 views 3 this week
2 commentsread comments
1 2 3 4 5
1 last vote to show rating
add to favorites
×
Save as Personal and add changes to this tab that will be seen only by you. Learn more ›
×
You can save this tab as Personal to edit and correct it or add notes. All changes will be seen only by you. Learn more »
launch autoscroll
font size
0
reset
how to read this tab
guitar tuner
edit
Autoscroll
slow
fast
+/-
esc
set tempo
stop
Author
Difficulty
-------------------------------------------------------------------------------
                             Skinned - Blind Melon
-------------------------------------------------------------------------------
Tabbed by: Brandon Stallsmith
Email: bjstallsmith@niacc.edu

This is song number four off of the albumn "Soup" and also one of my favorite Blind
songs.  I couldn't find a good tab for it anywhere so I decided to make one for it.  Please
me know if I need to make any corrections at all.  This is also my first tab so go easy 
me haha thanks.

Tuning: Standard

e|-----------------3--------------------------------3------------------------|
B|-2h3p2p0---0-----3---1---0-----0-----3-1-0--------3---1---0-----0----------|
G|---------2-------0---0---0-----0-----------0------0---0---0-----0----------|
D|---------------------------------------------------------------------------|
A|---------------------------------------------------------------------------|
E|--------------3--------------------------------3---------------------------|

e|-----------------3-----------------------------3---------------------------|
B|-3-1-0-------3---0-------------------------3---0---------------------------|
G|-------0-----1---1---1-----1---------------1---1---1-----1-----------------|
D|-------------2---2---2-----2--2-0---0------2---2---2-----2--2-0---0--------|
A|-------------2---2---2-----2------2--------2---2---2-----2------2----------|
E|----------0-----------------------------0----------------------------------|

That's all I have for now I'll try to update it as soon as possible, thanks.

-Brandon

| /  slide up
| \  slide down
| h  hammer-on
| p  pull-off
| ~  vibrato
| +  harmonic
| x  Mute note
===============================================================================

            
            
Suggest correction
Creating personal tab
Creating personal tab
You can edit any tab online and save it as your Personal.

You can edit, replace or remove any tab part or add personal notes – all changes will be seen only by you.

Personal tabs can be accessed anytime from any device, even offline.
Learn more »
Give kudos to tab author, rate the tab!
1 2 3 4 5
comments
print report bad tab
2 comments total.
0 reply
samerika 50 Sep 29, 2007 12:01 PM

Update it :D

+1 reply
acire.wollab 10 Jun 01, 2008 04:04 PM

this sounds better to me...


Intro Riff: ---------------------
--1-2-1-0---0--------
----------2----------
---------------------
---------------------
---------------------

G E7
Verse: -------------------------------------0--3--0-------------------------
----3--1--0--0--1--0--2--1--0--------0--3--0-------------------------
----0--0--0--------------------0-----1--1--1-------------------------
----0--0--0-----------------------------------2--0-----------0-------
----------------------------------------------------0--1--2----------
-3--------------------------------0----------------------------------

E7 Pre-Chorus Riff (G)
---0--0--0------------------------- 3------------------------------
---0--3--0------------------------- 3--5--6--5--8--8---------------
---1--1--1------------------------- ---5--7--5--7--7---------------
------------2--0-----------0------- ---5--5--5--5--5---------------
------------------0--1--2---------- 3------------------------------
0---------------------------------- 2------------------------------

guest
You may want to rate the tab now too:
select rating
Wanna post a correction for this tab? Suggest correction