Oops, an error
Loading. Please wait.
We have an official After Midnight tab made by UG professional guitarists. Check out the tab »
×
2,243 views 1 this week
no commentswrite comment
1 2 3 4 5
2 more votes to show rating
add to favorites
×
Save as Personal and add changes to this tab that will be seen only by you. Learn more ›
×
You can save this tab as Personal to edit and correct it or add notes. All changes will be seen only by you. Learn more »
launch autoscroll
font size
0
reset
how to read this tab
guitar tuner
edit
Autoscroll
slow
fast
+/-
esc
set tempo
stop
Author
Difficulty
This was tabbed out by mustanggtm0413

If you are looking to play something exactly to this song
you've come to the right tab.

I tabbed everything out by ear, even the solo so when played along side
the actual song it should sound 98.9% accurate.

If you would like to hear how this tabs played out go to
https://www.youtube.com/watch?v=AyOYA6KNj8g

Please don't judge the audio of the video due to i have no good quality
microphone to record with.

Tone: Lightly Distorted
e---------------------------------|
B---------------------------------|
G-----2-2---2-2-----2-2---2-2-----|  Play 1 time
D-----2-2---2-2-----2-2---2-2-----|
A-----0-0---0-0-----0-0---0-0-----|
E---------------------------------|

Tone: Clean
e--------------------------|
B--------------------------|
G-----9-9-9-99-6-7-77------|  Repeat 11 times
D-----7-7-7-77-7-7-77------|
A--------------------------|
E--------------------------|

Tone: Clean
 Play this part, 5 times first -------- Then play  this part 1 time after
e-------------------------------     |    e------------------------------|
B-----10----10----9----9--------     |    B-----10----10----10----10-----|
G--------99----99---99---99-----     |    G--------99----99----99----99--|
D-------------------------------     |    D------------------------------|
A-------------------------------     |    A------------------------------|
E-------------------------------     |    E------------------------------|

Tone: Lightly Distorted
e---------------------------------------------------|
B---------------------------------------------------|
G---------------------------------------------------|  Play 2 times
D-----7-xx-7-x-7---7/99/11--7-xx-7-x-7---7/99\7-----|
A-----x-xx-x-x-x---x-xx-x---x-xx-x-x-x---x-xx-x-----|
E-----5-xx-5-x-5---5/77/9---5-xx-5-x-5---5/99\5-----|

Tone: Lightly Distorted
e---------------------------------|
B---------------------------------|
G-----2-2---2-2-----2-2---2-2-----|  Play 1 time
D-----2-2---2-2-----2-2---2-2-----|
A-----0-0---0-0-----0-0---0-0-----|
E---------------------------------|

Tone: Clean
e--------------------------|
B--------------------------|
G-----9-9-9-99-6-7-77------|  Play 8 times
D-----7-7-7-77-7-7-77------|
A--------------------------|
E--------------------------|

Tone: Clean
 Play this part, 5 times first ---------- Then play  this part 1 time after
e-------------------------------     |    e------------------------------|
B-----10----10----9----9--------     |    B-----10----10----10----10-----|
G--------99----99---99---99-----     |    G--------99----99----99----99--|
D-------------------------------     |    D------------------------------|
A-------------------------------     |    A------------------------------|
E-------------------------------     |    E------------------------------|

Tone: Lightly Distorted
e---------------------------------------------------|
B---------------------------------------------------|
G---------------------------------------------------|  Play 4 times
D-----7-xx-7-x-7---7/99/11--7-xx-7-x-7---7/99\7-----|
A-----x-xx-x-x-x---x-xx-x---x-xx-x-x-x---x-xx-x-----|
E-----5-xx-5-x-5---5/77/9---5-xx-5-x-5---5/99\5-----|

Tone: Lightly Distorted
e-------------------|
B-------------------|
G-----2-2---2-2-----|  Play 1 time
D-----2-2---2-2-----|
A-----0-0---0-0-----|
E-------------------|

Tone: Lightly Distorted: Turn Down Volume Knob *Almost* All The Way On Guitar, So 
That You Get The Right Tone
e------------------------------------------------------------------------|
B------------------------------------------------------------------------|
G---------6--666-----------6--666----------------------------------------| 
D-----7-9--------9-7---7-9--------9-7---7Ring----------------------------|
A-----7-7-7--777-7-7---7-7-7--777-7-7------------------------------------|
E------------------------------------------------------------------------|

Tone: Clean
e------------------------------------------------------------------------|
B------------------------------------------------------------------------|
G-------9--9--9--9--9-------------------9--9--9--9--9--------------------| 
D-----7--7--7--7--7----7--7--7--7--7--7--7--7--7--7----7--7--7--7--7-----|
A--------------------9--9--9--9--9-------------------9--9--9--9--9-------|
E------------------------------------------------------------------------|

Tone: Lightly Distorted
e---------------------------------------------------|
B---------------------------------------------------|
G---------------------------------------------------|  Play 4 times
D-----7-xx-7-x-7---7/99/11--7-xx-7-x-7---7/99\7-----|
A-----x-xx-x-x-x---x-xx-x---x-xx-x-x-x---x-xx-x-----|
E-----5-xx-5-x-5---5/77/9---5-xx-5-x-5---5/99\5-----|

            
            
Suggest correction
Creating personal tab
Creating personal tab
You can edit any tab online and save it as your Personal.

You can edit, replace or remove any tab part or add personal notes – all changes will be seen only by you.

Personal tabs can be accessed anytime from any device, even offline.
Learn more »
Give kudos to tab author, rate the tab!
1 2 3 4 5
comments
print report bad tab
guest
You may want to rate the tab now too:
select rating
Wanna post a correction for this tab? Suggest correction