Oops, an error
Loading. Please wait.
We have an official All The Small Things tab made by UG professional guitarists. Check out the tab »
×
308,846 views 387 this week
36 commentsread comments
1 2 3 4 5
x 125
add to favorites
×
Save as Personal and add changes to this tab that will be seen only by you. Learn more ›
×
You can save this tab as Personal to edit and correct it or add notes. All changes will be seen only by you. Learn more »
launch autoscroll
font size
0
reset
guitar tuner
edit
Autoscroll
slow
fast
+/-
esc
set tempo
stop
Author
Unregistered
Song: All The Small Things
Band: Blink 182
Tabbed By: drifft

Here is how this song is actually played....for real!
The song is quite fast and is mainly eighth notes, with the interlude being
half and quarter notes.

[Intro]
G|-----|
D|-----|
A|-----|
E|-3-1-|

[Main Riff]
G|-----------------|-----------------|-----------------|-----------------|
D|-----------------|-----------------|-----------------|-----------------|
A|-3-3-3-3-3-3-3-3-|-3-3-3-3-3-3-3-5-|-----------------|-----------------|
E|-----------------|-----------------|-3-3-3-3-3-3-3-3-|-3-x-x-x-x-1-1-1-| x2

[Verse]
G|-----------------|-----------------|-----------------|-----------------|
D|-----------------|-----------------|-----------------|-----------------|
A|-3-3-3-3-3-3-3-3-|-----------------|-----------------|-----------------|
E|-----------------|-3-3-3-3-3-3-3-3-|-1-1-1-1-1-1-1-1-|-3-3-3-3-3-3-3-3-| x4

[Pre-Chorus]
G|-----------------|-----------------|-------------------------|-----------------|
D|-----------------|-----------------|-------------------------|-----------------|
A|-3-3-3-3-3-3-3-3-|-3-3-3-3-3-3-3-3-|-10-10-10-10-10-10-10-10-|-8-8-8-8-8-8-8-8-|
E|-----------------|-----------------|-------------------------|-----------------|

[Chorus]
G|-----------------|-----------------|-----------------|-----------------|
D|-----------------|-----------------|-----------------|-----------------|
A|-3-3-3-3-3-3-3-3-|-3-3-3-3-3-3-3-3-|-----------------|-----------------|
E|-----------------|-----------------|-3-3-3-3-3-3-3-3-|-1-1-1-1-1-1-1-1-| x2

[Main Riff]
G|-----------------|-----------------|-----------------|-----------------|
D|-----------------|-----------------|-----------------|-----------------|
A|-3-3-3-3-3-3-3-3-|-3-3-3-3-3-3-3-5-|-----------------|-----------------|
E|-----------------|-----------------|-3-3-3-3-3-3-3-3-|-3-x-x-x-x-1-1-1-| x2

[Verse]
G|-----------------|-----------------|-----------------|-----------------|
D|-----------------|-----------------|-----------------|-----------------|
A|-3-3-3-3-3-3-3-3-|-----------------|-----------------|-----------------|
E|-----------------|-3-3-3-3-3-3-3-3-|-1-1-1-1-1-1-1-1-|-3-3-3-3-3-3-3-3-| x2

[Pre-Chorus]
G|-----------------|-----------------|-------------------------|-----------------|
D|-----------------|-----------------|-------------------------|-----------------|
A|-3-3-3-3-3-3-3-3-|-3-3-3-3-3-3-3-3-|-10-10-10-10-10-10-10-10-|-8-8-8-8-8-8-8-8-|
E|-----------------|-----------------|-------------------------|-----------------|

[Chorus]
G|-----------------|-----------------|-----------------|-----------------|
D|-----------------|-----------------|-----------------|-----------------|
A|-3-3-3-3-3-3-3-3-|-3-3-3-3-3-3-3-3-|-----------------|-----------------|
E|-----------------|-----------------|-3-3-3-3-3-3-3-3-|-1-1-1-1-1-1-1-1-| x2

[Interlude]
G|-------------------|-------------------|-------------------|
D|-------------------|-------------------|-------------------|
A|-3-------8---10----|-3-------8---10----|-3-------8---10----|
E|-------------------|-------------------|-------------------|

[Interlude continued]
G|-----------------|-----------------|-----------------|-------------------------|
D|-----------------|-----------------|-----------------|-------------------------|
A|-3-3-3-3-3-3-3-3-|-3-3-3-3-3-3-3-3-|-8-8-8-8-8-8-8-8-|-10-10-10-10-10-10-10-10-|
E|-----------------|-----------------|-----------------|-------------------------|

[Chorus]
G|-----------------|-----------------|-----------------|-----------------|
D|-----------------|-----------------|-----------------|-----------------|
A|-3-3-3-3-3-3-3-3-|-3-3-3-3-3-3-3-3-|-----------------|-----------------|
E|-----------------|-----------------|-3-3-3-3-3-3-3-3-|-1-1-1-1-1-1-1-1-| x2

[Outro]                                          Play Fill here 2nd time through
G|-----------------|-----------------|-----------------|-----------------|
D|-----------------|-----------------|-----------------|-----------------|
A|-3-3-3-3-3-3-3-3-|-3-3-3-3-3-3-3-3-|-----------------|-----------------|
E|-----------------|-----------------|-3-3-3-3-3-3-3-3-|-x-x-1---x-x-1---|

[Outro Fill]
G|-----------------|-----------------|----|
D|-----------------|-----------------|----|
A|-----------------|-----------------|-3--|
E|-x-x-1---x-x-1---|-x-x-1---x-x-1---|----|

Song Order:
[Intro]
[Main Riff] x2
[Verse]
[Prechorus] x1
[Chorus]
[Main Riff] x2
[Verse]
[Prechorus] x1
[Chorus]
[Interlude]
[Chorus]
[Outro]

Please don't change this one again....email me if you can prove this tab 
is played some other way -- drifftware@hotmail.com

            
            
Suggest correction
Creating personal tab
Creating personal tab
You can edit any tab online and save it as your Personal.

You can edit, replace or remove any tab part or add personal notes – all changes will be seen only by you.

Personal tabs can be accessed anytime from any device, even offline.
Learn more »
comments
print report bad tab
36 comments total. Showing first comments.
0 reply
lvlissing_Tabs 10 Apr 24, 2002 08:00 PM

Great tab man, good job. I kept missing the five on the riff after the intro. Now it sounds a lot better. Thanx man!

0 reply
sc002b9632 10 May 27, 2002 08:00 PM

Thanx I can play it a lot better now.I keep missin the 5 on the main riff but i'll do it;-(

0 reply
spiderman86 60 Jan 07, 2003 07:00 PM

nice!!!

guest
Wanna post a correction for this tab? Suggest correction