Oops, an error
Loading. Please wait.
We have an official All The Small Things tab made by UG professional guitarists. Check out the tab »
×
9,036 views 12 this week
8 commentsread comments
1 2 3 4 5
x 11
add to favorites
×
Save as Personal and add changes to this tab that will be seen only by you. Learn more ›
×
You can save this tab as Personal to edit and correct it or add notes. All changes will be seen only by you. Learn more »
launch autoscroll
font size
0
reset
guitar tuner
edit
Autoscroll
slow
fast
+/-
esc
set tempo
stop
Author
Unregistered
Artist: Blink 182
Song: All The Small Things
Tabbed by: Dan Rowden

***  bass-tabs.co.uk - http://www.bass-tabs.co.uk  ***

Riff 1:
G|------------------------------------------------------------------------|
D|------------------------------------------------------------------------|
A|-3-3-3-3-3-3-3-3-3-3-3-3-3-3-3-3----------------------------------------|
E|---------------------------------3-3-3-3-3-3-3-3-5-5-5-5-5-5-5-5-1-1--1-| x2

Riff 2:
G|-----------------------------------------------------------------|
D|-----------------------------------------------------------------|
A|-3-3-3-3-3-3-3-3-------------------------------------------------|
E|-----------------3-3-3-3-3-3-3-3-1-1-1-1-1-1-1-1-3-3-3-3-3-3-3-3-| x4

Riff 3:
G|---------------------------------|
D|---------------------------------|
A|-3--3-3--3--3-3------------------|
E|-----------------3--3-3--1--1-1--|

Riff 4:
G|-----------------------------------------------------------------|
D|-----------------------------------------------------------------|
A|-3-3-3-3-3-3-3-3-3-3-3-3-3-3-3-3---------------------------------|
E|---------------------------------3-3-3-3-3-3-3-3-1-1-1-1-1-1-1-1-| x2

Riff 1:
G|------------------------------------------------------------------------|
D|------------------------------------------------------------------------|
A|-3-3-3-3-3-3-3-3-3-3-3-3-3-3-3-3----------------------------------------|
E|---------------------------------3-3-3-3-3-3-3-3-5-5-5-5-5-5-5-5-1-1--1-| x2

Riff 2:
G|-----------------------------------------------------------------|
D|-----------------------------------------------------------------|
A|-3-3-3-3-3-3-3-3-------------------------------------------------|
E|-----------------3-3-3-3-3-3-3-3-1-1-1-1-1-1-1-1-3-3-3-3-3-3-3-3-| x2

Riff 3:
G|---------------------------------|
D|---------------------------------|
A|-3--3-3--3--3-3------------------|
E|-----------------3--3-3--1--1-1--|

Riff 4:
G|-----------------------------------------------------------------|
D|-----------------------------------------------------------------|
A|-3-3-3-3-3-3-3-3-3-3-3-3-3-3-3-3---------------------------------|
E|---------------------------------3-3-3-3-3-3-3-3-1-1-1-1-1-1-1-1-| x2

Riff 5:
G|-----------------------------------------|
D|-----------------------------------------|
A|-3---------------------------------------|
E|-------------------1----------3----------| x4

Riff 4:
G|-----------------------------------------------------------------|
D|-----------------------------------------------------------------|
A|-3-3-3-3-3-3-3-3-3-3-3-3-3-3-3-3---------------------------------|
E|---------------------------------3-3-3-3-3-3-3-3-1-1-1-1-1-1-1-1-| x3

Riff 6:
G|-------------------------------------------------|
D|-------------------------------------------------|
A|-3-3-3-3-3-3-3-3-3-3-3-3-3-3-3-3-----------------|
E|---------------------------------3-3-3-3-3-3-3-3-|

G|-----------------------------------|
D|-----------------------------------|
A|----------------------------3------|
E|-1-1-1--1-1-1--1-1-1--1-1-1--------|


Song Order:

Riff 1 (x2)
Riff 2 (x4)
Riff 3
Riff 4 (x2)
Riff 1 (x2)
Riff 2 (x2)
Riff 3
Riff 4 (x2)
Riff 5 (x4)
Riff 4 (x3)
Riff 6


Any comments or suggestions? dan@bass-tabs.co.uk
Visit my website at http://www.bass-tabs.co.uk


            
            
Suggest correction
Creating personal tab
Creating personal tab
You can edit any tab online and save it as your Personal.

You can edit, replace or remove any tab part or add personal notes – all changes will be seen only by you.

Personal tabs can be accessed anytime from any device, even offline.
Learn more »
comments
print report bad tab
8 comments total. Showing first comments.
0 reply
jagster252 10 Apr 05, 2002 07:00 PM

wut song is this????

0 reply
Rage 382 Apr 07, 2002 08:00 PM

ALL THE FRIKIN' SMALL THINGS!!!

0 reply
Dark 132 Apr 09, 2002 08:00 PM

holy wrong notes

guest
Wanna post a correction for this tab? Suggest correction