Oops, an error
Loading. Please wait.
We have an official Always tab made by UG professional guitarists. Check out the tab »
×

Always bass

version 4
version 4

Whole song

78,261 views 66 this week
5 commentsread comments
1 2 3 4 5
x 49
add to favorites
×
Save as Personal and add changes to this tab that will be seen only by you. Learn more ›
×
You can save this tab as Personal to edit and correct it or add notes. All changes will be seen only by you. Learn more »
launch autoscroll
font size
0
reset
guitar tuner
edit
Autoscroll
slow
fast
+/-
esc
set tempo
stop
This Song is in regular tuning. this is my first time SUBMITTING a tab, not making a 
i also have other tabs, so any requests, email me at LpSpBlink182@aol.com
Anything in parenthesis is a different way of playing/ optional/ how i play.

[Intro]

G|-4-4-4-4-4-4-4-4-|-6-6-6-6-6-6-6-6/|/8-8-8-8-8-8-8-8\|\4-4-4-4-4-4-4-4-|
D|-4-4-4-4-4-4-4-4-|-4-4-4-4-4-4-4-4/|/6-6-6-6-6-6-6-6\|\2-2-2-2-2-2-2-2/|
A|-----------------|-----------------|-----------------|-----------------|
E|-----------------|-----------------|-----------------|-----------------|

G|-4-4-4-4-4-4-4-4-|-6-6-6-6-6-6-6-6/|/8-8-8-8-8-8-8-8\|\4-4-4-4-4-4-4-4/|
D|/4-4-4-4-4-4-4-4-|-4-4-4-4-4-4-4-4/|/6-6-6-6-6-6-6-6\|\2-2-2-2-2-2-2-2/|
A|-----------------|-----------------|-----------------|-----------------|
E|-----------------|-----------------|-----------------|-----------------|


[Verse]

G|-8-8-8-8-8-8-8-8-|-6-6-6-6-6-6-6-6-|-4-4-4-4-4-4-4-4-|-4-4-4-4-4-4-4-4-|
D|-9-9-9-9-9-9-9-9-|-8-8-8-8-8-8-8-8-|-6-6-6-6-6-6-6-6-|-6-6-6-6-6-6-6-6-|
A|-----------------|-----------------|-----------------|-----------------|
E|-----------------|-----------------|-----------------|-----------------|

G|-8-8-8-8-8-8-8-8-|-6-6-6-6-6-6-6-6-|-4-4-4-4-4-4-4-4-|-4-4-4-4-4-4-4-4-|
D|-9-9-9-9-9-9-9-9-|-8-8-8-8-8-8-8-8-|-6-6-6-6-6-6-6-6-|-6-6-6-6-6-6-6-6-|
A|-----------------|-----------------|-----------------|-----------------|
E|-----------------|-----------------|-----------------|-----------------|

G|-8-8-8-8-8-8-8-8-|-6-6-6-6-6-6-6-6-|-4-4-4-4-4-4-4-4-|-4-4-4-4-4-4-4-4-|
D|-9-9-9-9-9-9-9-9-|-8-8-8-8-8-8-8-8-|-6-6-6-6-6-6-6-6-|-6-6-6-6-6-6-6-6-|
A|-----------------|-----------------|-----------------|-----------------|
E|-----------------|-----------------|-----------------|-----------------|

G|-8-8-8-8-8-8-8-8-|-6-6-6-6-6-6-6-6-|-4-4-4-4-4-4-4-4-|-4-4-4-4-4-4-4-4-|
D|-9-9-9-9-9-9-9-9-|-8-8-8-8-8-8-8-8-|-6-6-6-6-6-6-6-6-|-6-6-6-6-6-6-6-6-|
A|-----------------|-----------------|-----------------|-----------------|
E|-----------------|-----------------|-----------------|-----------------|


[Pre-Chorus]

G|-4-4-4-4-4-4-4-4-|-6-6-6-6-6-6-6-6/|/8-8-8-8-8-8-8-8\|\4-4-4-4-4-4-4-4-|
D|-4-4-4-4-4-4-4-4-|-4-4-4-4-4-4-4-4/|/6-6-6-6-6-6-6-6\|\2-2-2-2-2-2-2-2/|
A|-----------------|-----------------|-----------------|-----------------|
E|-----------------|-----------------|-----------------|-----------------|

G|-4-4-4-4-4-4-4-4-|-6-6-6-6-6-6-6-6/|/8-8-8-8-8-8-8-8\|\4-4-4-4-4-4-4-4/|
D|/4-4-4-4-4-4-4-4-|-4-4-4-4-4-4-4-4/|/6-6-6-6-6-6-6-6\|\2-2-2-2-2-2-2-2/|
A|-----------------|-----------------|-----------------|-----------------|
E|-----------------|-----------------|-----------------|-----------------|


[Chorus]

G|-----------------|-----------------|-----------------|-----------------|
D|-----------------|-4-4-4-4-4-4-4-2-|-----------------|-----------------|
A|-2-2-2-2-2-2-2-2-|-----------------|-------------2-2-|-------------4-4-|
E|-----------------|-----------------|-4-4-4-4-4-4-----|-0-0-0-0-2-2-----|

G|-----------------|-----------------|-----------------|-----------------|
D|-----------------|-4-4-4-4-4-4-4-2-|-----------------|-----------------|
A|-2-2-2-2-2-2-2-2-|-----------------|-------------2-2-|-------------4-4-|
E|-----------------|-----------------|-4-4-4-4-4-4-----|-0-0-0-0-2-2-----|


[Post-Chorus]

G|-4-4-4-4-4-4-4-4-|-6-6-6-6-6-6-6-6/|/8-8-8-8-8-8-8-8\|\4-4-4-4-4-4-4-4-|
D|-4-4-4-4-4-4-4-4-|-4-4-4-4-4-4-4-4/|/6-6-6-6-6-6-6-6\|\2-2-2-2-2-2-2-2/|
A|-----------------|-----------------|-----------------|-----------------|
E|-----------------|-----------------|-----------------|-----------------|

G|-4-4-4-4-4-4-4-4-|-6-6-6-6-6-6-6-6/|/8-8-8-8-8-8-8-8\|\4-4-4-4-4-4-4-4/|
D|/4-4-4-4-4-4-4-4-|-4-4-4-4-4-4-4-4/|/6-6-6-6-6-6-6-6\|\2-2-2-2-2-2-2-2/|
A|-----------------|-----------------|-----------------|-----------------|
E|-----------------|-----------------|-----------------|-----------------|


[Verse 2]

G|-8---8-6---6-8------|-8---8-6---6-8------|-8---8-6---6-8------|-8---8-6---6-8------|
D|---9-----8----6/4\6-|---9-----8----6/4\6-|---9-----8----6/4\6-|---9-----8----6/4\6-|
A|--------------------|--------------------|--------------------|--------------------|
E|--------------------|--------------------|--------------------|--------------------|


[Pre-Chorus]

|-4-4-4-4-4-4-4-4-|-6-6-6-6-6-6-6-6/|/8-8-8-8-8-8-8-8\|\4-4-4-4-4-4-4-4-|
|-4-4-4-4-4-4-4-4-|-4-4-4-4-4-4-4-4/|/6-6-6-6-6-6-6-6\|\2-2-2-2-2-2-2-2/|
|-----------------|-----------------|-----------------|-----------------|
|-----------------|-----------------|-----------------|-----------------|

|-4-4-4-4-4-4-4-4-|-6-6-6-6-6-6-6-6/|/8-8-8-8-8-8-8-8\|\4-4-4-4-4-4-4-4/|
|/4-4-4-4-4-4-4-4-|-4-4-4-4-4-4-4-4/|/6-6-6-6-6-6-6-6\|\2-2-2-2-2-2-2-2/|
|-----------------|-----------------|-----------------|-----------------|
|-----------------|-----------------|-----------------|-----------------|

|-4-4-4-4-4-4-4-4-|-6-6-6-6-6-6-6-6/|/8-8-8-8-8-8-8-8\|\4-4-4-4-4-4-4-4-|
|-4-4-4-4-4-4-4-4-|-4-4-4-4-4-4-4-4/|/6-6-6-6-6-6-6-6\|\2-2-2-2-2-2-2-2/|
|-----------------|-----------------|-----------------|-----------------|
|-----------------|-----------------|-----------------|-----------------|

|-4-4-4-4-4-4-4-4-|-6-6-6-6-6-6-6-6/|/8-8-8-8-8-8-8-8\|\4-4-4-4-4-4-4-4/|
|/4-4-4-4-4-4-4-4-|-4-4-4-4-4-4-4-4/|/6-6-6-6-6-6-6-6\|\2-2-2-2-2-2-2-2/|
|-----------------|-----------------|-----------------|-----------------|
|-----------------|-----------------|-----------------|-----------------|


[Chorus]

|-----------------|-----------------|-----------------|-----------------|
|-----------------|-4-4-4-4-4-4-4-2-|-----------------|-----------------|
|-2-2-2-2-2-2-2-2-|-----------------|-------------2-2-|-------------4-4-|
|-----------------|-----------------|-4-4-4-4-4-4-----|-0-0-0-0-2-2-----|

|-----------------|-----------------|-----------------|-----------------|
|-----------------|-4-4-4-4-4-4-4-2-|-----------------|-----------------|
|-2-2-2-2-2-2-2-2-|-----------------|-------------2-2-|-------------4-4-|
|-----------------|-----------------|-4-4-4-4-4-4-----|-0-0-0-0-2-2-----|

|-----------------|-----------------|-----------------|-----------------|
|-----------------|-4-4-4-4-4-4-4-2-|-----------------|-----------------|
|-2-2-2-2-2-2-2-2-|-----------------|-------------2-2-|-------------4-4-|
|-----------------|-----------------|-4-4-4-4-4-4-----|-0-0-0-0-2-2-----|

|-----------------|-----------------|-----------------|-----------------|
|-----------------|-4-4-4-4-4-4-4-2-|-----------------|-----------------|
|-2-2-2-2-2-2-2-2-|-----------------|-------------2-2-|-------------4-4-|
|-----------------|-----------------|-4-4-4-4-4-4-----|-0-0-0-0-2-2-----|

Post-Chorus 2/ Bridge

|-----------------|-----------------|-----------------|-----------------|
|-----------------|-----------------|-----------------|-----------------|
|-2-2-2-2-2-2-2-2-|-4-4-4-4-4-4-4-4-|-----------------|-----------------|
|-----------------|-----------------|-4-4-4-4-4-4-4---|-0-0-0-0-0-0-0-0-|

|-----------------|-----------------|-----------------|-----------------|
|-----------------|-----------------|-----------------|-----------------|
|-2-2-2-2-2-2-2-2-|-4-4-4-4-4-4-4-4-|-----------------|-----------------|
|-----------------|-----------------|-4-4-4-4-4-4-4---|-0-0-0-0-0-0-0-0-|

Post-Chorus/ Bridge 2

|-4-4-4-4-4-4-4-4-|-6-6-6-6-6-6-6-6/|/8-8-8-8-8-8-8-8\|\4-4-4-4-4-4-4-4-|
|-4-4-4-4-4-4-4-4-|-4-4-4-4-4-4-4-4/|/6-6-6-6-6-6-6-6\|\2-2-2-2-2-2-2-2/|
|-----------------|-----------------|-----------------|-----------------|
|-----------------|-----------------|-----------------|-----------------|

|-4-4-4-4-4-4-4-4-|-6-6-6-6-6-6-6-6/|/8-8-8-8-8-8-8-8\|\4-4-4-4-4-4-4-4/|
|/4-4-4-4-4-4-4-4-|-4-4-4-4-4-4-4-4/|/6-6-6-6-6-6-6-6\|\2-2-2-2-2-2-2-2/|
|-----------------|-----------------|-----------------|-----------------|
|-----------------|-----------------|-----------------|-----------------|

Rest While Tom sings and start again at chorus.


[Chorus]

|-----------------|-----------------|-----------------|-----------------|
|-----------------|-4-4-4-4-4-4-4-2-|-----------------|-----------------|
|-2-2-2-2-2-2-2-2-|-----------------|-------------2-2-|-------------4-4-|
|-----------------|-----------------|-4-4-4-4-4-4-----|-0-0-0-0-2-2-----|

|-----------------|-----------------|-----------------|-----------------|
|-----------------|-4-4-4-4-4-4-4-2-|-----------------|-----------------|
|-2-2-2-2-2-2-2-2-|-----------------|-------------2-2-|-------------4-4-|
|-----------------|-----------------|-4-4-4-4-4-4-----|-0-0-0-0-2-2-----|

|-----------------|-----------------|-----------------|-----------------|
|-----------------|-4-4-4-4-4-4-4-2-|-----------------|-----------------|
|-2-2-2-2-2-2-2-2-|-----------------|-------------2-2-|-------------4-4-|
|-----------------|-----------------|-4-4-4-4-4-4-----|-0-0-0-0-2-2-----|

|-----------------|-----------------|-----------------|-----------------|
|-----------------|-4-4-4-4-4-4-4-2-|-----------------|-----------------|
|-2-2-2-2-2-2-2-2-|-----------------|-------------2-2-|-------------4-4-|
|-----------------|-----------------|-4-4-4-4-4-4-----|-0-0-0-0-2-2-----|

Post-Chorus/ Outro [bass 1]

|-----------------|-----------------|-----------------|-----------------|
|-----------------|-----------------|-----------------|-----------------|
|-2-2-2-2-2-2-2-2-|-4-4-4-4-4-4-4-4-|-----------------|-----------------|
|-----------------|-----------------|-4-4-4-4-4-4-4---|-0-0-0-0-0-0-0-0-|

|-----------------|-----------------|-----------------|-----------------|
|-----------------|-----------------|-----------------|-----------------|
|-2-2-2-2-2-2-2-2-|-4-4-4-4-4-4-4-4-|-----------------|-----------------|
|-----------------|-----------------|-4-4-4-4-4-4-4---|-0-0-0-0-0-0-0-0-|

|-----------------|-----------------|-----------------|-----------------|
|-----------------|-----------------|-----------------|-----------------|
|-2-2-2-2-2-2-2-2-|-4-4-4-4-4-4-4-4-|-----------------|-----------------|
|-----------------|-----------------|-4-4-4-4-4-4-4---|-0-0-0-0-0-0-0-0-|

|-----------------|-----------------|-----------------|-----------------|
|-----------------|-----------------|-----------------|-----------------|
|-2-2-2-2-2-2-2-2-|-4-4-4-4-4-4-4-4-|-----------------|-----------------|
|-----------------|-----------------|-4-4-4-4-4-4-4---|-0-0-0-0-0-0-0-0-|

Post-Chorus/ Outro [bass 2]

|-4-4-4-4-4-4-4-4-|-6-6-6-6-6-6-6-6/|/8-8-8-8-8-8-8-8\|\4-4-4-4-4-4-4-4-|
|-4-4-4-4-4-4-4-4-|-4-4-4-4-4-4-4-4/|/6-6-6-6-6-6-6-6\|\2-2-2-2-2-2-2-2/|
|-----------------|-----------------|-----------------|-----------------|
|-----------------|-----------------|-----------------|-----------------|

|-4-4-4-4-4-4-4-4-|-6-6-6-6-6-6-6-6/|/8-8-8-8-8-8-8-8\|\4-4-4-4-4-4-4-4/|
|/4-4-4-4-4-4-4-4-|-4-4-4-4-4-4-4-4/|/6-6-6-6-6-6-6-6\|\2-2-2-2-2-2-2-2/|
|-----------------|-----------------|-----------------|-----------------|
|-----------------|-----------------|-----------------|-----------------|

|-4-4-4-4-4-4-4-4-|-6-6-6-6-6-6-6-6/|/8-8-8-8-8-8-8-8\|\4-4-4-4-4-4-4-4-|
|-4-4-4-4-4-4-4-4-|-4-4-4-4-4-4-4-4/|/6-6-6-6-6-6-6-6\|\2-2-2-2-2-2-2-2/|
|-----------------|-----------------|-----------------|-----------------|
|-----------------|-----------------|-----------------|-----------------|

|-4-4-4-4-4-4-4-4-|-6-6-6-6-6-6-6-6/|/8-8-8-8-8-8-8-8\|\4-4-4-4-4-4-4-4/|
|/4-4-4-4-4-4-4-4-|-4-4-4-4-4-4-4-4/|/6-6-6-6-6-6-6-6\|\2-2-2-2-2-2-2-2/|
|-----------------|-----------------|-----------------|-----------------|
|-----------------|-----------------|-----------------|-----------------|

End
|-----------------|
|-----------------|
|-2~--------------|
|-----------------|



************************************

| /  Slide up
| \  Slide down
| ~  Vibrato 

************************************

            
            
Suggest correction
Creating personal tab
Creating personal tab
You can edit any tab online and save it as your Personal.

You can edit, replace or remove any tab part or add personal notes – all changes will be seen only by you.

Personal tabs can be accessed anytime from any device, even offline.
Learn more »
comments
print report bad tab
5 comments total. Showing first comments.
0 reply
daniel1000 30 Apr 11, 2009 11:13 AM

man this tab is perfect!!
5 stars man:)

-1 reply
Likecal 30 Jul 16, 2009 09:49 AM

idk why i think this song is a 1/2 step down? anyways its perfect!!

0 reply
addz182 10 Aug 13, 2011 03:41 AM

Brilliant tab!! The only thing I think may be missing is the last part of the verse, does it go

G|-8-8-8-8-8-8-8-8-|-6-6-6-6-6-6-6-6-|-4-4-4-4-4-4-4-4-
D|-9-9-9-9-9-9-9-9-|-8-8-8-8-8-8-8-8-|-6-6-6-6-6-6-6-6-
A|-----------------|-----------------|-----------------
E|-----------------|-----------------|-----------------

-6-6-6-6-6-6-6-6-|
-4-4-4-4-4-4-4-4-|
-----------------|
-----------------|

guest
Wanna post a correction for this tab? Suggest correction