Oops, an error
Loading. Please wait.
We have an official Always tab made by UG professional guitarists. Check out the tab »
×

Always tab

version 12
version 12

Whole song

Video

  • High quality, easy to follow video lesson.
142 views 1 this week
no commentswrite comment
1 2 3 4 5
2 more votes to show rating
add to favorites
×
Save as Personal and add changes to this tab that will be seen only by you. Learn more ›
×
You can save this tab as Personal to edit and correct it or add notes. All changes will be seen only by you. Learn more »
launch autoscroll
font size
0
reset
how to read this tab
guitar tuner
edit
Autoscroll
slow
fast
+/-
esc
set tempo
stop
Author
Difficulty
About this tab version
This tab is based off of the original song off of the untitled album by blink-182, (blink-182), and has a time signature of 4/4 with a tempo of around 158 BPM. As far as ease goes, it is recommended for experienced guitar players familiar with the song and every part containing the main instrument is used and gives techniques on how to play the specified section. There is a total number of two guitar parts, [distorted/overdriven, clean with reverb, and secondary guitar, (clean with reverb)]. Was this info helpful? Yes No
Artist: blink-182
Album: blink-182 (untitled)
Song: Always
Tuning: Standard (e, B, G, D, A, E)
Tempo: 158
Tabbed by: Alex Foster (alexfoster4221)
Email: alex.foster422@gmail.com

Guitar 1, clean, enters at 0:34, ends at 0:59
*Add reverb

[Verse 1] 0:21 - 0:46

PM.------------------------------------------------------------------------------------------------------

e|-------------------------|-------------------------|-------------------------|-------------------------|
B|-------------------------|-------------------------|-------------------------|-------------------------|
G|-------------------------|-------------------------|-------------------------|-------------------------|
D|-------------------------|-------------------------|-------------------------|-------------------------|
A|-----6-6-6-6-6-6-6-6-----|-----4-4-4-4-4-4-4-4-----|-----2-2-2-2-2-2-2-2-----|-----2-2-2-2-2-2-2-2-----|
E|-----7-7-7-7-7-7-7-7-----|-----6-6-6-6-6-6-6-6-----|-----4-4-4-4-4-4-4-4-----|-----4-4-4-4-4-4-4-4-----|

PM.------------------------------------------------------------------------------------------------------

e|-------------------------|-------------------------|-------------------------|-------------------------|
B|-------------------------|-------------------------|-------------------------|-------------------------|
G|-------------------------|-------------------------|-------------------------|-------------------------|
D|-------------------------|-------------------------|-------------------------|-------------------------|
A|-----6-6-6-6-6-6-6-6-----|-----4-4-4-4-4-4-4-4-----|-----2-2-2-2-2-2-2-2-----|-------------------------|
E|-----7-7-7-7-7-7-7-7-----|-----6-6-6-6-6-6-6-6-----|-----4-4-4-4-4-4-4-4-----|-----2-2-2-2-2-2-2-2-----|

[Pre-chorus 1] 0:46 - 0:58

e|-------------------------|-------------------------|-------------------------|-------------------------|
B|-----------4----4--------|-----------4----4--------|-----------4----4--------|-------------------------|
G|--------4-----4----------|--------4-----4----------|--------4-----4----------|--------4----4-----------| X2
D|-------------------------|-------------------------|-------------------------|-------------------------|
A|-----2-------------------|-----4-------------------|-------------------------|-------------------------|
E|-------------------------|-------------------------|-----4-------------------|-----0-------------------|

Guitar 1, distorted/overdriven, enters at 0:58, ends at 1:11

[Chorus 1] 0:58 - 1:11

e|-------------------------|-------------------------|-------------------------|-------------------------|
B|-------------------------|-------------------------|-------------------------|-------------------------|
G|-----4-4-4-4-4-4-4-4-----|-----8-8-8-8-8-8-8-8-----|-------------------------|-------------------------| X2
D|-----4-4-4-4-4-4-4-4-----|-----x-x-x-x-x-x-x-x-----|-----4-4-4-4-4-4-4-4-----|-----2-2-2-2-2-2-2-2-----|
A|-----2-2-2-2-2-2-2-2-----|-----6-6-6-6-6-6-6-6-----|-----4-4-4-4-4-4-4-4-----|-----2-2-2-2-2-2-2-2-----|
E|-------------------------|-------------------------|-----2-2-2-2-2-2-2-2-----|-----0-0-0-0-0-0-0-0-----|

Guitar 1, clean, enters at 1:11, ends at 2:11
*Add reverb

[Post-chorus] 1:11 - 1:23

e|-------------------------|-------------------------|-------------------------|-------------------------|
B|-----------4----4--------|-----------4----4--------|-----------4----4--------|-------------------------|
G|--------4-----4----------|--------4-----4----------|--------4-----4----------|--------4----4-----------| X2
D|-------------------------|-------------------------|-------------------------|-------------------------|
A|-----2-------------------|-----4-------------------|-------------------------|-------------------------|
E|-------------------------|-------------------------|-----4-------------------|-----0-------------------|

[Verse 2] 1:23 - 1:47

e|-------------------------|-------------------------|-------------------------|-------------------------|
B|-------------------------|-------------------------|-------------------------|-------------------------|
G|-------------------------|-------------------------|-------------------------|-------------------------| X4
D|-------------------------|-------------------------|-------------------------|-------------------------|
A|--------6-----6----------|--------4-----4----------|--------6--2-------------|------------2------------|
E|-----------7-------------|-----------6-------------|--------------4----------|-------------------------|

[Pre-chorus 2] 1:47 - 2:11

e|-------------------------|-------------------------|-------------------------|-------------------------|
B|-----------4----4--------|-----------4----4--------|-----------4----4--------|-------------------------|
G|--------4-----4----------|--------4-----4----------|--------4-----4----------|--------4----4-----------| X4
D|-------------------------|-------------------------|-------------------------|-------------------------|
A|-----2-------------------|-----4-------------------|-------------------------|-------------------------|
E|-------------------------|-------------------------|-----4-------------------|-----0-------------------|

Guitar 1, distorted/overdriven, enters at 2:11, ends at 2:48

[Chorus 2] 2:11 - 2:36

e|-------------------------|-------------------------|-------------------------|-------------------------|
B|-------------------------|-------------------------|-------------------------|-------------------------|
G|-----4-4-4-4-4-4-4-4-----|-----8-8-8-8-8-8-8-8-----|-------------------------|-------------------------| X4
D|-----4-4-4-4-4-4-4-4-----|-----x-x-x-x-x-x-x-x-----|-----4-4-4-4-4-4-4-4-----|-----2-2-2-2-2-2-2-2-----|
A|-----2-2-2-2-2-2-2-2-----|-----6-6-6-6-6-6-6-6-----|-----4-4-4-4-4-4-4-4-----|-----2-2-2-2-2-2-2-2-----|
E|-------------------------|-------------------------|-----2-2-2-2-2-2-2-2-----|-----0-0-0-0-0-0-0-0-----|

[Bridge A] 2:36 - 2:48

e|-------------------------|-------------------------|-------------------------|-------------------------|
B|-------------------------|-------------------------|-------------------------|-------------------------|
G|-----4-4-4-4-4-4-4-4-----|-----4-4-4-4-4-4-4-4-----|-----4-4-4-4-4-4-4-4-----|------8-8-/-7-7-\-4------| X2
D|-----x-x-x-x-x-x-x-x-----|-----x-x-x-x-x-x-x-x-----|-----x-x-x-x-x-x-x-x-----|------x-x-x-x-x-x-x------|
A|-----2-2-2-2-2-2-2-2-----|-----1-1-1-1-1-1-1-1-----|-----2-2-2-2-2-2-2-2-----|------6-6-/-9-9-\-2------|
E|-------------------------|-------------------------|-------------------------|-------------------------|

Guitar 2, clean, enters at 2:36, ends at 2:48
*Add reverb

e|-------------------------|-------------------------|-------------------------|-------------------------|
B|----4---4---4---4h-5p----|----4---4---4---4h-5p----|----4---4---4---4h-5p----|---4---4h-5p-4---4h-5p---|
G|------4---4---4----------|------4---4---4----------|------4---4---4----------|-----4---------4---------| X2
D|-------------------------|-------------------------|-------------------------|-------------------------|
A|-------------------------|-------------------------|-------------------------|-------------------------|
E|-------------------------|-------------------------|-------------------------|-------------------------|

Guitar 1, distorted/overdriven, starts at 2:48, ends at 3:38

[Bridge B] 2:48 - 3:13

e|-------------------------|-------------------------|-------------------------|-------------------------|
B|-------------------------|-------------------------|-------------------------|-------------------------|
G|-------------------------|-------------------------|-------------------------|-------------------------|
D|-------------------------|-------------------------|-------------------------|-------------------------|
A|----------6-\------------|-----------4-\-----------|------------2------------|---------2-/-4-/---------|
E|----------.--------------|-------------------------|------------.------------|---------.---------------|

e|-------------------------|-------------------------|-------------------------|-------------------------|
B|-------------------------|-------------------------|-------------------------|-------------------------|
G|-------------------------|-------------------------|-------------------------|-------------------------|
D|----------6-\------------|-----------4-\-----------|------------2------------|-------------------------|
A|-------------------------|-------------------------|------------.------------|-------------------------|
E|-------------------------|-------------------------|-------------------------|-------------------------|
Hold the last note for the next measure also.

[Chorus 3] 3:13 - 3:38

e|-------------------------|-------------------------|-------------------------|-------------------------|
B|-------------------------|-------------------------|-------------------------|-------------------------|
G|-----4-4-4-4-4-4-4-4-----|-----8-8-8-8-8-8-8-8-----|-------------------------|-------------------------| X4
D|-----4-4-4-4-4-4-4-4-----|-----x-x-x-x-x-x-x-x-----|-----4-4-4-4-4-4-4-4-----|-----2-2-2-2-2-2-2-2-----|
A|-----2-2-2-2-2-2-2-2-----|-----6-6-6-6-6-6-6-6-----|-----4-4-4-4-4-4-4-4-----|-----2-2-2-2-2-2-2-2-----|
E|-------------------------|-------------------------|-----2-2-2-2-2-2-2-2-----|-----0-0-0-0-0-0-0-0-----|

Guitar 1, clean, enters at 3:38, ends at 4:11, (end)
*Add reverb

[Outro] 3:38 - 4:11

e|-------------------------|-------------------------|-------------------------|-------------------------|
B|----4---4---4---4h-5p----|----4---4---4---4h-5p----|----4---4---4---4h-5p----|---4---4h-5p-4---4h-5p---|
G|------4---4---4----------|------4---4---4----------|------4---4---4----------|-----4---------4---------| X4
D|-------------------------|-------------------------|-------------------------|-------------------------|
A|-------------------------|-------------------------|-------------------------|-------------------------|
E|-------------------------|-------------------------|-------------------------|-------------------------|

****************************

| h   Hammer-on
| p   Pull-off
| /   Slide up
| \   Slide down
| x   Dead note
| .   Staccato
| PM. Palm mute

****************************

            
            
Suggest correction
Creating personal tab
Creating personal tab
You can edit any tab online and save it as your Personal.

You can edit, replace or remove any tab part or add personal notes – all changes will be seen only by you.

Personal tabs can be accessed anytime from any device, even offline.
Learn more »
Give kudos to tab author, rate the tab!
1 2 3 4 5
comments
print report bad tab
guest
You may want to rate the tab now too:
select rating
Wanna post a correction for this tab? Suggest correction